Oops, an error
Loading. Please wait.

Soldier On Tab

version 3
version 3

Whole song

Interactive

38,316 views 27 this week
2 commentsread comments
1 2 3 4 5
x 12
add to favorites
launch autoscroll
font size
0
reset
how to read this tab
guitar tuner
Autoscroll
slow
fast
+/-
esc
set tempo
stop
Help us to improve Ultimate-Guitar.com Take our survey!
×
Difficulty
intermediate
-------------------------------------------------------------------------------
                             Soldier On - The Temper Trap
-------------------------------------------------------------------------------
Tabbed by: Will Kent (with compliments to his guitar teacher Ted)
Email: kentiewill@gmail.com
Find lesson on YouTube - profile - thiskent123

Tuning: standard

For the whole picking part I don't use the top 2 strings. 
When the chord strumming comes in, be sure to mute the A string, or else it will sound very bad!
Good luck! 

   Bm                       D
e|-----7----7------7----7-------0----0---------0------0-----|
B|------------7-----------7--------------10--------------10-|
G|-----7-----7-----7-----7------11-----11------11------11---|
D|--9-----9-----9-----9-----12-----12------12------12-------|
A|----------------------------------------------------------|
E|----------------------------------------------------------|
    F#m                      G
e|-----2---2-------2---2--------0---0-------0---0-----------|
B|-------------2-----------2------------3-----------3-------|
G|-----2-----2-----2-----2------4-----4-----4-----4---------|
D|--4-----4-----4-----4------5-----5-----5-----5------------|
A|----------------------------------------------------------|
E|----------------------------------------------------------|

(Starts at 1:58)
    Bm                      D
e|-----7----7------7----7-------0----0---------0------0-----|
B|------------7-----------7--------------10--------------10-|
G|-----7-----7-----7-----7------11-----11------11------11---|
D|--9-----9-----9-----9-----12-----12------12------12-------|
A|----------------------------------------------------------|
E|----------------------------------------------------------|
   F#m                       G
e|-----2---2-------2---2-------0---0-------0----------------|
B|-------------2-----------2-----------3--------------------|
G|-----2-----2-----2-----2-----4-----4-----4----------------|
D|--4-----4-----4-----4------5----5-----5-----4--3----------|
A|----------------------------------------------------------|
E|----------------------------------------------------------|
   Em                       F#m
e|-----0---0-------0-----------2---2-------2----------------|
B|-------------0----------------------2---------------------|
G|-----0-----0-----0-----------2-----2-----2----------------|
D|--2-----2------2----2--3--4-----4-----4-----4--3----------|
A|----------------------------------------------------------|
E|----------------------------------------------------------|
   Em                       F#m
e|-----0---0-------0-----------2---2-------2----------------|
B|-------------0----------------------2---------------------|
G|-----0-----0-----0-----------2-----2-----2----------------|
D|--2-----2------2----2--3--4-----4-----4-----4--3----------|
A|----------------------------------------------------------|
E|----------------------------------------------------------|
   Em                       F#m
e|-----0---0-------0-----------2---2-------2----2-----------|
B|-------------0----------------------2-----------2---------|
G|-----0-----0-----0-----------2-----2-----2-----2----------|
D|--2-----2-----2-----2--3--4-----4-----4-----4-------------|
A|----------------------------------------------------------|
E|----------------------------------------------------------|
   G                         A
e|-----0----0------0----0----0-----|
B|------------3--------------5-----|
G|-----4-----4-----4-----4---6-----|
D|--5-----5-----5-----5------7-----|
A|---------------------------------|
E|---------------------------------|


Strumming part:


e|----------------------------------------------------------|
B|----------------------------------------------------------|
G|---7-7-7-7-7-7-7-7------7/11-11-11-11-11-11-11-11---------|
D|---0-0-0-0-0-0-0-0---------0--0--0--0--0--0--0--0---------|
A|----------------------------------------------------------|
E|----------------------------------------------------------|

e|----------------------------------------------------------|
B|----------------------------------------------------------|
G|---2-2-2-2-2-2-2-2--------4-4-4-4-4-4-4-4-----------------|
D|---0-0-0-0-0-0-0-0--------0-0-0-0-0-0-0-0-----------------|
A|----------------------------------------------------------|
E|----------------------------------------------------------|

for these parts, you can hit the bottom e and B strings open every now and then. 

e|----------------------------------------------------------|
B|----------------------------------------------------------|
G|---7-7-7-7-7-7-7-7------7/11-11-11-11-11-11-11-11---------|
D|---0-0-0-0-0-0-0-0---------0--0--0--0--0--0--0--0---------|
A|---x-x-x-x-x-x-x-x---------x--x--x--x--x--x--x--x---------|
E|---7-7-7-7-7-7-7-7--------10-10-10-10-10-10-10-10---------|
                                                               
e|----------------------------------------------------------|
B|----------------------------------------------------------|
G|---2-2-2-2-2-2-2-2--------4-4-4-4-4-4-4-4-----------------|
D|---0-0-0-0-0-0-0-0--------0-0-0-0-0-0-0-0-----------------|
A|---x-x-x-x-x-x-x-x--------x-x-x-x-x-x-x-x-----------------|
E|---2-2-2-2-2-2-2-2--------3-3-3-3-3-3-3-3-----------------|


*************************************************************

/ = slide
x = MUTE

*************************************************************

Good Luck

Remember to check out the YouTube lesson!
Thanks!
Suggest correction
comments
print report bad tab
2 comments total.
0 reply
alexthejordan 41 Feb 02, 2012 05:00 PM

this is perfect, thank you. the part with the muted A string sounds soooooooooo rad.

0 reply
casey.ryan 10 Feb 03, 2015 03:54 AM

Great tab, well done

guest
You may want to rate the tab now too:
select rating
Wanna post a correction for this tab? Suggest correction