Oops, an error
Loading. Please wait.

Sweet Disposition Bass

version 1
version 1

Whole song

Interactive

19,512 views 15 this week
5 commentsread comments
1 2 3 4 5
x 5
add to favorites
launch autoscroll
font size
0
reset
guitar tuner
×
Best way to learn
"Sweet Disposition"
Autoscroll
slow
fast
+/-
esc
set tempo
stop
Difficulty
novice
my first tab. sounds right when you play it with the music in the background.
not sure wether its completely correct though, you might need to play longer than
i tabed for some bits


Come in at 0:37 with Guitar
G|------------------------------|
D|------------------------------|
A|55~-------------55~-----------|
E|------55---33-55------5---3-5-|

At 0:52
G|------------------------------|
D|------------------------------|  Slide between notes
A|5~------------5~------------5-|
E|------5~---3--------5---3--5--|  x2 on second only play:

G|-------------|
D|-------------|
A|5~-----------|
E| -----5~---3-|

Pre-Chorus
G|---------------------------------|
D|---------------------------------|
A|555555555555555555555555555555555
E|---------------------------------

Chorus (1:22
G|--------------------------------------------------------------|
D|--------------------------------------------------------------|
A|5555555555555-------------------------------------------------|
E|-------------5555555555555/3333333333333333333333/55555555555-| x4  Slide between notes

After chorus (1:53) x4
G|--------------------------------------------------------------------------|
D|--------------------------------------------------------------------------|
A|555555555555555555555555555555555-----------------------------------------|
E|---------------------------------555555555555555555555/333333333333333333-|


Pre-Chorus (2:29)  12, not 1, 2, 1, 2
G|--------------------------------------------------------------------------|
D|--------------------------------------------------------------------------|
A|55555555555555555555555555555555555555555555555555555/12121212121212121212|
E|--------------------------------------------------------------------------|

Chorus (2:44)
G|-----------------------------------------------------------------|
D|-----------------------------------------------------------------|
A|5555555555555----------------------------------------------------|
E|-------------5555555555555/3333333333333333333333/5555555555555--| x8

On 8th:
G|---------|
D|---------|
A|5~~~~~~~~
E|---------

Thats it, hope you like
Suggest correction
comments
print report bad tab
5 comments total. Showing first comments.
+5 reply
Micardo 53 Aug 12, 2009 09:49 PM

Hey good start but you made a few mistakes

It should be this:

At 0:52
G|------------------------------|
D|------------------------------|
A|5~------------5~------------5-|
E|------7~---3--------7---3--5--|

So the bass line is D, B, G then a quick A note back to D

And in the chorus is should be:

Chorus (1:22
G|--------------------------------------------------------------|
D|--------------------------------------------------------------|
A|5555555555555-------------------------------------------------|
E|-------------7777777777777/3333333333333333333333/00000000000-| x4

So now its D, B, G, E

And finally:

Pre-Chorus (2:29) 17, not 1, 7, 1, 7
G|--------------------------------------------------------------------------|
D|--------------------------------------------------------------------------|
A|55555555555555555555555555555555555555555555555555555/17171717171717171717|
E|--------------------------------------------------------------------------|

It stays on the D note for that whole part

+1 reply
hillsy945 136 Sep 16, 2009 07:15 AM

Agree completely with Micardo

0 reply
spiff-corgi 831 Oct 18, 2009 03:11 AM

then why is this tab rated 5 stars. it's almost completely wrong. *rates 2*

guest
You may want to rate the tab now too:
select rating
Wanna post a correction for this tab? Suggest correction