Oops, an error
Loading. Please wait.

Sweet Disposition Bass Tab

version 2
version 2

Whole song

Interactive

2,174 views 1 this week
no commentswrite comment
1 2 3 4 5
please rate
add to favorites
launch autoscroll
font size
0
reset
guitar tuner
Autoscroll
slow
fast
+/-
esc
set tempo
stop
Help us to improve Ultimate-Guitar.com Take our survey!
×
Intro (0:38) (2x)

G|------------------------------|
D|------------------------------|
A|--5---------------------------|
E|----------------7-------3-----|

G|-------------------------------|
D|-------------------------------|
A|--5----------------------------|
E|----------------7-------3---5--|


Pre-chorus (1x)

G|-------------------------------|
D|-------------------------------|
A|--5----------------------------|
E|----------------7-------3---5--|


G|-----------------------------|
D|-----------------------------|
A|--5-(32x)--------------------|
E|-----------------------------|


Chorus (4x)
[Rest of the song is picked very fast. I can't figure out how many times it's 
picked, but here are the notes.]
G|----------------------|
D|----------------------|
A|--5-------------------|
E|-------7-----3----0---|


Post-chorus (1x)


G|-----------------------------|
D|-----------------------------|
A|--5--------------------------|
E|-----------------------------|


Verse (4x)

G|------------------------------|
D|------------------------------|
A|--5---------------------------|
E|----------------7-------3-----|


Pre-chorus

G|-----------------------------|
D|-----------------------------|
A|--5--------------------------|
E|-----------------------------|

G|-----------------------------|
D|-----------------------------|
A|--5-----------------/17------|
E|-----------------------------|


Chorus (8x)

G|----------------------|
D|----------------------|
A|--5-------------------|
E|-------7-----3----0---|


End (1x)

G|----------------------|
D|----------------------|
A|--5~~~~---------------|
E|----------------------|
Suggest correction
Give kudos to tab author, rate the tab!
1 2 3 4 5
comments
print report bad tab
guest
You may want to rate the tab now too:
select rating
Please do not post tabs as comments. Select "correction" instead!