Oops, an error
Loading. Please wait.

Sweet Disposition Bass Tab

version 3
version 3

Whole song

Interactive

6,780 views 1 this week
no commentswrite comment
1 2 3 4 5
excellent!
x 2
add to favorites
launch autoscroll
font size
0
reset
guitar tuner
Tab Pro tools
  • play this tab
  • loop segment
  • change instrument
  • show fretboard
  • metronome
×
Best way to learn
"Sweet Disposition"
Autoscroll
slow
fast
+/-
esc
set tempo
stop
Contributor
-------------------------------------------------------------------------------
	        Sweet Disposition - The Temper Trap
-------------------------------------------------------------------------------

 Tabbed by:dvanwyk
 Email:dustinvanwyk@yahoo.com

 Tuning:Standard

 Verse  (0.37)
G|---7~---------7-------------|
D|----------------------------|
A|55--------------------------|
E|-----------77------333------|

G|---7~---------7-------------|
D|----------------------------|
A|55--------------------------|
E|-----------77------333-5~---|

G|--------------------------------------------------|
D|--------------------------------------------------|
A|5~--------------------5~--------------------------|
E|----------7~----3~--------------7~----3~--5~------|

G|----------------------------|
D|----------------------------|
A|5~--------------------------|
E|----------7~----3~--5~------|

G|-------------------------------------|
D|-------------------------------------|
A|5555555555555555-5555555555555555----|
E|-------------------------------------|

 Chorus x4
G|-----------------------------------------|
D|-----------------------------------------|
A|55555555---------------------------------|
E|---------77777777-33333333-00000000------|

 x2
G|-------------------------------------|
D|-------------------------------------|
A|5555555555555555-5555555555555555----|
E|-------------------------------------|

 Verse x4
G|---------------------------------------|
D|---------------------------------------|
A|5555555555555555-----------------------|
E|-----------------77777777-33333333-----|

G|-------------------------------------|
D|-------------------------------------|
A|5555555555555555-5555555555555555----|
E|-------------------------------------|

G|------------------------------------------|
D|----------------------------/121212121212-|
A|5555555555555555-5555555555---------------|
E|------------------------------------------|

 Chorus x8


G|-----------|
D|-----------|
A|5~---------|
E|-----------|
comments
We did not receive enough feedback on this tab! Please rate:
print report bad tab
1 2 3 4 5
I want to post or [tab]
guest
You may want to rate the tab now too:
select rating
Please do not post tabs as comments. Select "correction" instead!