Oops, an error
Loading. Please wait.

Sweet Disposition Bass Tab

version 5
version 5

Whole song

Interactive

1,243 views 1 this week
no commentswrite comment
1 2 3 4 5
excellent!
x 5
add to favorites
launch autoscroll
font size
0
reset
guitar tuner
Tab Pro tools
  • play this tab
  • loop segment
  • change instrument
  • show fretboard
  • metronome
×
Best way to learn
"Sweet Disposition"
Autoscroll
slow
fast
+/-
esc
set tempo
stop
Contributor
 Sweet Disposition Bass Tab®

Starts at 0.37

G|-----7-----------7------------------|
D|------------------------------------|
A|--5----------5----------------------|
E|-----------------------7-----3------|

G|-----7-----------7---------------------|
D|---------------------------------------|
A|--5----5-------------------------------|
E|--------------7------7----3----5-------|

G|---------------------------|
D|---------------------------|
A|--5------------------------|
E|----------------7---3------|


G|-------------------------------|
D|-------------------------------| ( x 2 )
A|--5----------------------------|
E|---------------7---3---5-------|

G|-----------------------------------------|
D|-----------------------------------------|
A|--5(x40)---------------------------------|
E|-------------7(x8)--3(x8)--0(x8)---------|

G|---------------------------------------|
D|---------------------------------------| ( x 3 )
A|--5(x8)--------------------------------|
E|-----------7(x8)--3(x8)--0(x8)---------|

G|------------------------------|
D|------------------------------|
A|--5(x48)----------------------|
E|-----------7(x8)--3(x8)-------|

G|-------------------------------|
D|-------------------------------| ( x 4 )
A|--5(x16)-----------------------|
E|-----------7(x8)--3(x8)--------|

G|---------------------------------------|
D|---------------------------------------|
A|--5(x52)/17(x8)------------------------|
E|---------------------------------------|

G|---------------------------------------|
D|---------------------------------------| ( x 8 )
A|--5(x8)--------------------------------|
E|-----------7(x8)--3(x8)--0(x8)---------|

G|---------------------------------------|
D|---------------------------------------|
A|--5------------------------------------|
E|---------------------------------------|
comments
print report bad tab
I want to post or [tab]
guest
You may want to rate the tab now too:
select rating
Please do not post tabs as comments. Select "correction" instead!