Oops, an error
Loading. Please wait.

Aint Too Proud To Beg Bass Tab

version 2
version 2

Whole song

Interactive

1,626 views 9 this week
no commentswrite comment
1 2 3 4 5
please rate
add to favorites
launch autoscroll
font size
0
reset
guitar tuner
Tab Pro tools
  • play this tab
  • loop segment
  • change instrument
  • show fretboard
  • metronome
×
Best way to learn
"Aint Too Proud To Beg"
Autoscroll
slow
fast
+/-
esc
set tempo
stop
Contributor
Difficulty
intermediate
AINT TOO PROUD TO BEG
Released by The Temptations in 1966. Song written by
Whitefield & Holland. Reached number 13 in USA and 21
here in the UK. Original bassist, the master, James Jamerson.
Tab by bass50611. Unlike other tabs this is 100% of
Jamerson's original bassline Note the pauses and syncopation.
Any comments its bass254@btinternet.com.
Great funky/dance song

Verse 1: No Bass

Chorus 1:             .                          .
G|-2-0---------0---2----------------------0---2-----------------|
D|-----2-----2---3----------------------2---3-------------------|
A|-------2-3----------3----33-0---0---3----------3----33-0----0-|
E|------------------------------3---------------------------3---|
              .                          .             .
G|-----0---2----------------------0---2------------------|
D|---2---3----------------------2---3--------------------|
A|-3----------3----33-0----0--3----------3----33-0---0-3-|
E|-----------------------3-------------------------3-----|

Verse 2: No Bass

Repeat Chorus 1

Verse 3 No Bass

Chorus 2:             .                          .
G|-2-0---------0---2----------------------0---2-----------------|
D|-----2-----2---3----------------------2---3-------------------|
A|-------2-3----------3----33-0---0---3----------3----33-0----0-|
E|------------------------------3-------------------------3-----|
              .
G|-----0---2----------------------0---2-2-00-00-00-0-|
D|---2---3----------------------2---3----------------|
A|-3----------3----33-0---0---3----------------------|
E|----------------------3----------------------------|

Sax (or Guitar) Solo:
                .                          .
G|--------0---2----------------------0---2---------------|
D|-----2---3----------------------2---3------------------|
A|-2-3----------3----33-0---0---3----------3----33-0---0-|
E|------------------------3--------------------------3---|
              .                                         .
G|-----0---2----------------------0---2-2-00-00-00-0------|
D|---2---3----------------------2---3---------------------|
A|-3----------3----33-0---0---3-----------------------2-3-|
E|----------------------3---------------------------------|

Verse 4 No Bass

Last Chorus: (Keep Repeating This Bit)       (ENDING)
G|-2-0-----||-----0---2---------------||-----0---2-2-00-00-00-0-----|
D|-----2---||---2---3-----------------||---2---3--------------------|
A|-------2-||-3----------3---33-0---0-||-3----------------------2-3-|
E|---------||---------------------3---||----------------------------|
comments
We did not receive enough feedback on this tab! Please rate:
print report bad tab
1 2 3 4 5
I want to post or [tab]
guest
You may want to rate the tab now too:
select rating
Please do not post tabs as comments. Select "correction" instead!