Oops, an error
Loading. Please wait.

Do Your Thing Bass Tab

52 views 3 this week
no commentswrite comment
1 2 3 4 5
3 more votes to show rating
add to favorites
launch autoscroll
font size
0
reset
guitar tuner
Autoscroll
slow
fast
+/-
esc
set tempo
stop
Help us to improve Ultimate-Guitar.com Take our survey!
×
Author
Do Your Thing
The Temptations
Bass Tab
Bass: Bob Babbitt

140BPM, 4/4, Cm

Intro

|----------|---------|----------|---------|
|----------|---------|----------|---------|
|-----3----|---------|-----3----|---------|
|----------|---------|----------|---------|

|----------|----------|-----------|---------|
|----------|----------|-----------|---------|
|-----3----|---3------|-3--3------|---------|
|----------|----------|-----------|---------|

Verse
                                                             5x
||-----------|-----------------|----------|------------------||
||o----------|----8--10--8-10--|----------|----8--10--8-10--o||
||o----------|-10--------------|----------|-10--------------o||
||--8--------|-----------------|-8--------|------------------||

|----------|-----------------|----------|-------------------|
|----------|----8--10--8-10--|----------|----8-9-10-5-------|
|----------|-10--------------|----------|-10----------3-4-5-|
|-8--------|-----------------|-8--------|-------------------|

Chorus

|---------------|----6---8s9-10-11-|-12----------------|----------------|
|---------------|--8---8-----------|----12-7-6-5-------|----5-----------|
|-6---6---4-5-6-|------------------|-------------5-----|--5---5---5---5-|
|-------6-------|------------------|---------------1-3-|--------6---7---|

|--------------|-----------------|----------|---------------|
|----10--------|---10----8-10----|----------|-5-3---5-------|
|----------10--|------10---------|-3--------|-----6---6-3---|
|-8------------|---------------3-|----------|---------------|

|----------|----------|-----------|---------|
|----------|----------|-----------|---------|
|-----3----|---3------|-3--3------|---------|
|----------|----------|-----------|---------|

Verse
                                                             5x
||-----------|-----------------|----------|------------------||
||o----------|----8--10--8-10--|----------|----8--10--8-10--o||
||o----------|-10--------------|----------|-10--------------o||
||--8--------|-----------------|-8--------|------------------||

|----------|-----------------|--------------|------------------|
|----------|----8--10--8-10--|----------8-9-|-10-5-3-5---------|
|----------|-10--------------|-------10-----|----------3-4-5---|
|-8--------|-----------------|-8------------|----------------6-|

Chorus

|---------------|----6---8s9-10-11-|-12----------------|----------------|
|---------------|--8---8-----------|----12-7-6-5-------|----3-4-5-------|
|-6---6---4-5-6-|------------------|-------------5-----|--5-------5-----|
|-------6-------|------------------|---------------1-3-|------------6-7-|

|------------|-----------------|-------------|-------------|
|------------|---10----8-10----|-------------|-------------|
|--------10--|------10---------|--------10-8-|---6----6-5--|
|-8----------|-----------------|-8-----------|------6------|

|----------|----------|-----------|----------|
|----------|----------|-----------|----------|
|-----3----|---3------|-3--3------|----------|
|----------|----------|-----------|--------3-|

Verse/Ending

|----------|-----------------|----------|------------------|
|----------|----8--10--8-10--|----------|----8--10-8-8-10--|
|-3--------|-10--------------|----------|-10---------------|
|----------|-----------------|-8--------|------------------|

|----------|-----------------|---------------|--------------------|
|----------|----8--10--8-10--|----------10-8-|-10-8---------------|
|----------|-10--------------|-------10------|------10-8-10-8-----|
|-8--------|-----------------|-8-------------|----------------8-6-|

|----------|-----------------|----------|-----------------|
|----------|----8--10--8-10--|----------|----8--10--8-----|
|----------|-10--------------|----------|-10----------10--|
|-8--------|-----------------|-8--------|-----------------|

|----------|-----------------|----------|-----------------|
|----------|----8--10--8-10--|----------|-----------------|
|----------|-10--------------|----------|-10-8-6-8-6------|
|-8--------|-----------------|-8--------|------------8--3-|

|----------|-----------------|----------|-----------------|
|----------|----8--10--8-10--|----------|----8--10--8-10--|
|-3--------|-10--------------|----------|-10--------------|
|----------|-----------------|-8--------|-----------------|

|----------|-----------------|---------------|--------------------|
|----------|----8--10--8-10--|----------10-8-|-10-8---------------|
|----------|-10--------------|-------10------|------10-8-10-8-----|
|-8--------|-----------------|-8-------------|----------------8-6-|

|----------|-----------------|----------|-----------------|
|----------|----8--10--8-10--|----------|----8--10--8-10--|
|----------|-10--------------|----------|-10--------------|
|-8--------|-----------------|-8--------|-----------------|

|----------|-----------------|----------|-----------------|
|----------|----8--10--8-10--|----------|-----------------|
|----------|-10--------------|----------|-10-8-6-8-6------|
|-8--------|-----------------|-8--------|------------8--3-|

|----------|-----------------|----------|-----------------|
|----------|----8--10--8-10--|----------|----8--10--8-10--|
|-3--------|-10--------------|----------|-10--------------|
|----------|-----------------|-8--------|-----------------|

|----------|-----------------|---------------|--------------------*|
|----------|----8--10--8-10--|----------10-8-|-10-8---------------*|
|----------|-10--------------|-------10------|------10-8-10-8-----*|
|-8--------|-----------------|-8-------------|----------------8-6-*| fade

Suggest correction
Give kudos to tab author, rate the tab!
1 2 3 4 5
comments
print report bad tab
guest
You may want to rate the tab now too:
select rating
Wanna post a correction for this tab? Suggest correction