Oops, an error
Loading. Please wait.

My Christmas Tree Bass Tab

22 views 1 this week
no commentswrite comment
1 2 3 4 5
3 more votes to show rating
add to favorites
launch autoscroll
font size
0
reset
guitar tuner
Autoscroll
slow
fast
+/-
esc
set tempo
stop
Help us to improve Ultimate-Guitar.com Take our survey!
×
Author
Difficulty
novice
Tabbed by: 6METAL6BASSIST6
E-mail: petergriffinav@gmail.com

Tuning: EADG

0:12

G|----------------------------------------------------------------|
D|------------5---5---------------------------5---5---------------| x3
A|3---------------------------3---3---------------------------3---|
E|----------------------------------------------------------------|

G|----------------------------------------------------------------|
D|------------5---5-----------------------------------------------|
A|3---------------------------3---7-----------7---7-----------7---|
E|----------------------------------------------------------------|

0:35

G|----------------------------------------------------------------|
D|----------------------------------------------------------------|
A|----------------------------------------------------------------|
E|5-----------5---4-----------4---3-----------3---2-----------2---|

G|----------------------------------------------------------------|
D|----------------------------------------------------------------|
A|----------------7---7-------5-------------------5-----------5---|
E|1-------1-----------------------------------5-------------------|

G|----------------------------------------------------------------|
D|----------------------------------------------------------------|
A|8-----------8---7-----------7---8-----------8---7-----------7---|
E|----------------------------------------------------------------|

G|----------------------------------------------------------------|
D|--------------------------------------------5---5---------------|
A|5-------5-------------------3-----------------------------------|
E|----------------3---3---------------------------------------3---|

0:57

G|----------------------------------------------------------------|
D|------------5---5---------------------------5---5---------------| x3
A|3---------------------------3---3---------------------------3---|
E|----------------------------------------------------------------|

G|----------------------------------------------------------------|
D|------------5---5-----------------------------------------------|
A|3---------------------------3---7-----------7---7---------------|
E|------------------------------------------------------------7-6-|

1:21

G|----------------------------------------------------------------|
D|----------------------------------------------------------------|
A|----------------------------------------------------------------|
E|5-----------5---4-----------4---3-----------3---2-----------2---|

G|----------------------------------------------------------------|
D|----------------------------------------------------------------|
A|----------------7---7-------5-------------------5-----------5---|
E|1-------1-----------------------------------5-------------------|

G|----------------------------------------------------------------|
D|----------------------------------------------------------------|
A|8-----------8---7-----------7---8-----------8---7-----------7---|
E|----------------------------------------------------------------|

G|----------------------------------------------------------------|
D|--------------------------------------------5---5---------------|
A|5-------5-------------------3---3-------------------------------|
E|----------------3---3---------------------------------------3---|

1:45

G|----------------------------------------------------------------|
D|----------------------------------------------------------------|
A|8-----------8---8-------8---8---7-----------7---7-------7-------|
E|----------------------------------------------------------------|

G|--------------------------------------------5-----------5-------|
D|----------------------------------------5-----------5-----5-----|
A|5-----------5---5-------5-------3---------------------------3---|
E|----------------------------------------------------------------|

G|----------------------------------------------------------------|
D|----------------------------------------------------------------|
A|2-----------2---2-----------2---------------7---7-----------7---|
E|--------------------------------5-------------------------------|

G|----------------------------------------------------------------|
D|----------------7---------------------------5-------------------|
A|5-----------5-----------5-----------------------5---------------|
E|--------------------------------3-------------------------------|

2:07

G|----------------------------------------------------------------|
D|------------5---5---------------------------5---5---------------| x3
A|3---------------------------3---3---------------------------3---|
E|----------------------------------------------------------------|

G|----------------------------------------------------------------|
D|------------5---5-----------------------------------------------|
A|3---------------------------3---7-----------7---7---------------|
E|------------------------------------------------------------7-6-|

2:30

G|----------------------------------------------------------------|
D|----------------------------------------------------------------|
A|----------------------------------------------------------------|
E|5-----------5---4-----------4---3-----------3---2-----------2---|

G|----------------------------------------------------------------|
D|----------------------------------------------------------------|
A|----------------7---7-------5-------------------5-----------5---|
E|1-------1-----------------------------------5-------------------|

G|----------------------------------------------------------------|
D|----------------------------------------------------------------|
A|8-----------8---7-----------7---8-----------8---7-----------7---|
E|----------------------------------------------------------------|

G|----------------------------------------------------------------|
D|--------------------------------------------5---5---------------|
A|5-------5-------------------3-------------------------------3---|
E|----------------3---3-------------------------------------------|

2:53

G|----------------------------------------------------------------|
D|----------------------------------------------------------------|
A|8-----------8---7-----------7---8-----------8---7-----------7---|
E|----------------------------------------------------------------|

G|----------------------------------------------------------------|
D|--------------------------------------------5---5---------------|
A|5-------5-------------------3-------------------------------3---|
E|----------------3---3-------------------------------------------|

G|----------------------------------------------------------------|
D|----------------------------------------------------------------|
A|8-----------8---7-----------7---8-----------8---7-----------7---|
E|----------------------------------------------------------------|

G|--------------------------------------------------------------------|
D|--------------------------------------------5---5-------------------| fades out here.
A|5-------5-------------------3---------------------------3-5-6-7-8---|
E|----------------3---3-----------------------------------------------|
Suggest correction
Give kudos to tab author, rate the tab!
1 2 3 4 5
comments
print report bad tab
guest
You may want to rate the tab now too:
select rating
Wanna post a correction for this tab? Suggest correction