Oops, an error
Loading. Please wait.
We have an official My Girl tab made by UG professional guitarists. Check out the tab »
×
39,364 views 9 this week
4 commentsread comments
1 2 3 4 5
x 15
add to favorites
×
Save as Personal and add changes to this tab that will be seen only by you. Learn more ›
×
You can save this tab as Personal to edit and correct it or add notes. All changes will be seen only by you. Learn more »
launch autoscroll
font size
0
reset
how to read this tab
guitar tuner
backing track
0:00
0:00
edit
Autoscroll
slow
fast
+/-
esc
set tempo
stop
Author
Difficulty
e|--------------|
B|-----------1--|
G|-------0-2----|   x2 
D|---0-2--------|  
A|-3------------| 
E|--------------|

e|--------------|--------------|--------------|--------------|
B|-----------1--|--------------|-----------1--|--------------|
G|-------0-2----|--------------|-------0-2----|--------------|
D|---0-2--------|---------0-3--|---0-2--------|---------0-3--|
A|-3------------|-----0-3------|-3------------|-----0-3------|
E|--------------|-1-3----------|--------------|-1-3----------|

 I've got sunshine   on a cloudy day

e|--------------|--------------|--------------|--------------|
B|-----------1--|--------------|-----------1--|--------------|
G|-------0-2----|--------------|-------0-2----|--------------|
D|---0-2--------|---------0-3--|---0-2--------|---------0-3--|
A|-3------------|-----0-3------|-3------------|-----0-3------|
E|--------------|-1-3----------|--------------|-1-3----------|

 When it's cold outside,   I've got the month of May

[Chorus]
I guess you say
what can make me feel this way
My girl.... My girl.... My girl....
Talking 'bout my girl  (My girl....)

e|--------------|--------------|--------------|--------------|
B|-----------1--|--------------|-----------1--|--------------|
G|-------0-2----|--------------|-------0-2----|--------------|
D|---0-2--------|---------0-3--|---0-2--------|---------0-3--|
A|-3------------|-----0-3------|-3------------|-----0-3------|
E|--------------|-1-3----------|--------------|-1-3----------|

 I've got so much honey , the bees envy me

e|--------------|--------------|--------------|--------------|
B|-----------1--|--------------|-----------1--|--------------|
G|-------0-2----|--------------|-------0-2----|--------------|
D|---0-2--------|---------0-3--|---0-2--------|---------0-3--|
A|-3------------|-----0-3------|-3------------|-----0-3------|
E|--------------|-1-3----------|--------------|-1-3----------|

 I've got a sweeter song, than the birds and the trees

[Chorus]
Well, I guess you say
what can make me feel this way
My girl.... My girl.... My girl....
Talking 'bout my girl  (my girl....)

then some bass is played, but when the violin starts, play this:

e|--------------|
B|-----------1--| 
G|-------0-2----|   x2 
D|---0-2--------|  
A|-3------------| 
E|--------------|

e|--------------|--------------|--------------|--------------|
B|-----------1--|--------------|-----------1--|--------------|
G|-------0-2----|--------------|-------0-2----|--------------|
D|---0-2--------|---------0-3--|---0-2--------|---------0-3--|
A|-3------------|-----0-3------|-3------------|-----0-3------|
E|--------------|-1-3----------|--------------|-1-3----------|

[play with violin]
e|--------------|--------------|
B|--------------|--------------|
G|---------0-2-2|---------0-222|
D|-----0-2------|-----0-2------|
A|-2-2----------|-2-2----------|
E|--------------|--------------|

e|-----------1--|--------------|-----------1--|--------------|
B|-------1-3----|--------------|-------1-3----|--------------|
G|---0-2--------|---------0-3--|---0-2--------|---------0-3--|
D|-3------------|-----0-3------|-3------------|-----0-3------|
A|--------------|-1-3----------|--------------|-1-3----------|
E|--------------|--------------|--------------|--------------|

I don't need no money, fortune or fame

e|-----------1--|--------------|-----------1--|--------------|
B|-------1-3----|--------------|-------1-3----|--------------|
G|---0-2--------|---------0-3--|---0-2--------|---------0-3--|
D|-3------------|-----0-3------|-3------------|-----0-3------|
A|--------------|-1-3----------|--------------|-1-3----------|
E|--------------|--------------|--------------|--------------|

I've got all the riches- baby, one man can claim

[Chorus]
I guess you say
what can make me feel this way
My girl.... My girl.... My girl....
Talking 'bout my girl  (My girl....) (Talking 'bout my girl....)

I've got sunshine on a cloudy day with my girl...
I've even got the month of May with my girl...

            
            
Suggest correction
Creating personal tab
Creating personal tab
You can edit any tab online and save it as your Personal.

You can edit, replace or remove any tab part or add personal notes – all changes will be seen only by you.

Personal tabs can be accessed anytime from any device, even offline.
Learn more »
comments
print report bad tab
4 comments total. Showing first comments.
-2 reply
Beibenite 10 Mar 19, 2010 07:17 AM

It's pretty good, though I think it sounds better like this:
|--------------|--------------|--------------|--------------|
B|-----------1--|--------------|-----------1--|--------------|
G|-------0-2----|--------------|-------0-2----|--------------|
D|---0-2--------|---------0----|---0-2--------|---------0-3--|
A|-3------------|-----0-3---3--|--------------|-----0-3------|
E|--------------|-1-3----------|--------------|-1-3----------|

Just check it out an tell me what ya think ;) :)

0 reply
yofooooo 230 May 07, 2010 10:43 PM

better tab then the others.

-1 reply
modain47 236 Oct 31, 2011 10:17 PM

This is what I hear...

e|--------------|--------------|--------------|--------------|
B|------------1-|--------------|------------1-|--------------|
G|--------0-2---|--------------|--------0-2---|--------------|
D|----0-2-------|----------0-2-|----0-2-------|----------0-2-|
A|-3------------|------0-3-----|-3------------|------0-3-----|
E|--------------|-1--3---------|--------------|-1--3---------|

Or play it like this so you can play the same pattern when it modulates up one step later in the song...

e|--------------|--------------|--------------|--------------|
B|--------------|--------------|--------------|--------------|
G|----------2-5-|--------------|----------2-5-|--------------|
D|------2-5-----|------------2-|------2-5-----|------------2-|
A|-3--5---------|--------3-5---|-3--5---------|--------3-5---|
E|--------------|-1--3-5-------|--------------|-1--3-5-------|

guest
You may want to rate the tab now too:
select rating
Wanna post a correction for this tab? Suggest correction