Oops, an error
Loading. Please wait.

Papa Was A Rolling Stone bass

version 2
version 2

Whole song

Interactive

5,164 views 66 this week
3 commentsread comments
1 2 3 4 5
x 7
add to favorites
×
Save as Personal and add changes to this tab that will be seen only by you. Learn more ›
×
You can save this tab as Personal to edit and correct it or add notes. All changes will be seen only by you. Learn more »
launch autoscroll
font size
0
reset
guitar tuner
edit
Autoscroll
slow
fast
+/-
esc
set tempo
stop
Author
Difficulty
its simple really. one part is extra but it strings together quite nicely. try it out.
its eadg. played throughout the entire song.


G|---------------------------------------------------------------------|
D|---------------------------------------------------------------------|
A|----------------44---------------------------------------------------|
E|-----5-6--------------4---56-----------------------------------------|

            
            
Suggest correction
Creating personal tab
Creating personal tab
You can edit any tab online and save it as your Personal.

You can edit, replace or remove any tab part or add personal notes – all changes will be seen only by you.

Personal tabs can be accessed anytime from any device, even offline.
Learn more »
comments
print report bad tab
3 comments total.
0 reply
uncatema 10 Jun 10, 2014 01:48 PM

It is simple yet effective. Thing is one must play with a lot of feeling or it gets boring. Improvisation is a good way to mix it up but should be done sparingly and subtlety.

0 reply
seattle_mac2007 10 Feb 17, 2015 04:59 PM

G|---------------------------------------------------------------------|
D|---------------------------------------------------------------------|
A|----------------44---------------------------------------------------|
E|-----5-6--------------4-6-----------------------------------------

this one works also

0 reply
seattle_mac2007 10 Sep 04, 2015 08:34 PM

G|---------------------------------------------------------------------|
D|---------------------------------------------------------------------|
A|----------------44---------------------------------------------------|
E|-----5-6--------------4-6-----------------------------------------

guest
You may want to rate the tab now too:
select rating
Wanna post a correction for this tab? Suggest correction