Oops, an error
Loading. Please wait.

Get Started Tab

85 views 1 this week
no commentswrite comment
1 2 3 4 5
please rate
add to favorites
launch autoscroll
font size
0
reset
how to read this tab
guitar tuner
Autoscroll
slow
fast
+/-
esc
set tempo
stop
Help us to improve Ultimate-Guitar.com Take our survey!
×
Author
http://www.thetenants.com.au/

-------------------------------------------------------------------------------
			     Get Started - The Tenants
-------------------------------------------------------------------------------
Tabbed by: Tyler J
Email: full_metal_orange AT hotmail DOT com

Tuning: Standard



INTRO:
   P.M...    P.M...    P.M...
E-|--------4---------4---------4------|-
B-|-------------------------------4-2-|-
G-|-----------------------------------|-
D-|---0h2-------0h2-------0h2---------|-(x 2)
A-|-0---------0---------0-------------|-
E-|-----------------------------------|-

E-|-----------------------------------|-
B-|--------9---------9---------9------|-
G-|---7/9--9----7/9--9----7/9--9------|-
D-|---7/9--9----7/9--9----7/9--9--9-7-|-(x 4)
A-|-0-5/7--7--0-5/7--7--0-5/7--7--9-7-|-
E-|-------------------------------7-5-|-

1ST VERSE:
E-|-----------------------------------|-
B-|-----------------------------------|-
G-|-9-9-9-----------------------------|-
D-|-9-9-9-------------------------9-7-|-(x 4 - play a fast triplet for the E chord)
A-|-7-7-7-------------------------9-7-|-
E-|-0-0-0-------------------------7-5-|-

E-|-----------------------------------|-
B-|--------9---------9---------9------|-
G-|---7/9--9----7/9--9----7/9--9------|-
D-|---7/9--9----7/9--9----7/9--9--9-7-|-(x 2)
A-|-0-5/7--7--0-5/7--7--0-5/7--7--9-7-|-
E-|-------------------------------7-5-|-

E-|-----------------------------------|-
B-|-----------------------------------|-
G-|-9-9-9-----------------------------|-
D-|-9-9-9-------------------------9-7-|-(x 4 - play a fast triplet for the E chord)
A-|-7-7-7-------------------------9-7-|-
E-|-0-0-0-------------------------7-5-|-

PRE CHORUS:
E-|-----------------------------------|-
B-|--------9---------9----------------|-
G-|---7/9--9----7/9--9----------------|-
D-|---7/9--9----7/9--9----------------|-(x 4)
A-|-0-5/7--7--0-5/7--7----------------|-
E-|-----------------------------------|-

CHORUS:
    E5    A5  D5    B5
E-|---------------------|-	-|-----------------|-
B-|---------------------|-	-|-----------------|-
G-|-9-9-9-----7-7-7-----|-	-|-7-7-7-7---------|-
D-|-9-9-9-7-7-7-7-7-9-9-|-(x 3)	-|-7-7-7-7-7-7-7-7-|-
A-|-7-7-7-7-7-5-5-5-9-9-|-	-|-5-5-5-5-7-7-7-7-|-
E-|-------5-5-------7-7-|-	-|---------5-5-5-5-|-

2ND VERSE:
E-|-----------------------------------|-
B-|--------9---------9---------9------|-
G-|---7/9--9----7/9--9----7/9--9------|-
D-|---7/9--9----7/9--9----7/9--9--9-7-|-(x 4 - no singing in this part)
A-|-0-5/7--7--0-5/7--7--0-5/7--7--9-7-|-
E-|-------------------------------7-5-|-

E-|-----------------------------------|-
B-|-----------------------------------|-
G-|-9-9-9-----------------------------|-
D-|-9-9-9-------------------------9-7-|-(x 4 - play a fast triplet for the E chord)
A-|-7-7-7-------------------------9-7-|-
E-|-0-0-0-------------------------7-5-|-

PRE CHORUS:
E-|-----------------------------------|-
B-|--------9---------9----------------|-
G-|---7/9--9----7/9--9----------------|-
D-|---7/9--9----7/9--9----------------|-(x 4)
A-|-0-5/7--7--0-5/7--7----------------|-
E-|-----------------------------------|-

CHORUS:
    E5    A5  D5    B5
E-|---------------------|-	-|-----------------|-
B-|---------------------|-	-|-----------------|-
G-|-9-9-9-----7-7-7-----|-	-|-7-7-7-7---------|-
D-|-9-9-9-7-7-7-7-7-9-9-|-(x 3)	-|-7-7-7-7-7-7-7-7-|-
A-|-7-7-7-7-7-5-5-5-9-9-|-	-|-5-5-5-5-7-7-7-7-|-
E-|-------5-5-------7-7-|-	-|---------5-5-5-5-|-

BRIDGE:
E-|-----------------|-
B-|-9---7/9-----7/9-|-
G-|-9---7/9-----7/9-|-
D-|-9---7/9-----7/9-|-
A-|-7---------------|-
E-|-----------------|-

   P.M...    P.M...    P.M...
E-|--------4---------4---------4------|-
B-|-------------------------------4-2-|-
G-|-----------------------------------|-
D-|---0h2-------0h2-------0h2---------|-(x 4)
A-|-0---------0---------0-------------|-
E-|-----------------------------------|-

E-|-----------------------------------|-
B-|--------9---------9---------9------|-
G-|---7/9--9----7/9--9----7/9--9------|-
D-|---7/9--9----7/9--9----7/9--9--9-7-|-(x 4)
A-|-0-5/7--7--0-5/7--7--0-5/7--7--9-7-|-
E-|-------------------------------7-5-|-

   P.M...    P.M...    P.M...
E-|--------4---------4---------4------|-
B-|-------------------------------4-2-|-
G-|-----------------------------------|-
D-|---0h2-------0h2-------0h2---------|-
A-|-0---------0---------0-------------|-
E-|-----------------------------------|-

E-|-----------------------------------|-
B-|--------9---------9---------9------|-
G-|---7/9--9----7/9--9----7/9--9------|-
D-|---7/9--9----7/9--9----7/9--9--9-7-|-
A-|-0-5/7--7--0-5/7--7--0-5/7--7--9-7-|-
E-|-------------------------------7-5-|-

   P.M...    P.M...    P.M...
E-|--------4---------4---------4------|-
B-|-------------------------------4-2-|-
G-|-----------------------------------|-
D-|---0h2-------0h2-------0h2---------|-
A-|-0---------0---------0-------------|-
E-|-----------------------------------|-

E-|-----------------------------------|-
B-|--------9---------9---------9------|-
G-|---7/9--9----7/9--9----7/9--9------|-
D-|---7/9--9----7/9--9----7/9--9--9-7-|-
A-|-0-5/7--7--0-5/7--7--0-5/7--7--9-7-|-
E-|-------------------------------7-5-|-

LAST CHORUS:
    E5    A5  D5    B5
E-|---------------------|-	
B-|---------------------|-	
G-|-9-9-9-----7-7-7-----|-	
D-|-9-9-9-7-7-7-7-7-9-9-|-(x 8)	
A-|-7-7-7-7-7-5-5-5-9-9-|-	
E-|-------5-5-------7-7-|-	

   P.M...    P.M...    P.M...
E-|--------4---------4---------4------|-
B-|-------------------------------4-2-|-
G-|-------------------------------4-2-|-
D-|---0h2-------0h2-------0h2-----4-2-|-
A-|-0---------0---------0---------2-0-|-
E-|-----------------------------------|-

Suggest correction
What's this?
You can suggest a correction to this tab. Community and Mods will review your correction and vote to approve or reject it.
comments
We did not receive enough feedback on this tab! Please rate:
print report bad tab
1 2 3 4 5
guest
You may want to rate the tab now too:
select rating
Please do not post tabs as comments. Select "correction" instead!