Oops, an error
Loading. Please wait.

Mister Sister Tab

589 views 6 this week
no commentswrite comment
1 2 3 4 5
3 more votes to show rating
add to favorites
launch autoscroll
font size
0
reset
how to read this tab
guitar tuner
Autoscroll
slow
fast
+/-
esc
set tempo
stop
Help us to improve Ultimate-Guitar.com Take our survey!
×
Author
Difficulty
novice
Mister Sister

The Tender Box  http://thetenderbox.com/

Standard Tuning


-----------------------------------------------------------|
-----------------------------------------------------------|
-------11-9-11-------11-9-11-----11-9-11-------11-9-11-----|  3x
-----------------------------------------------------------|
-12-12---------12-12---------9-9---------12-12-------------|
-----------------------------------------------------------|

-------------------------------------------|
-------------------------------------------|
--------9-----7------------6-----7---------|  1x
-7------9-8x--7-8x--7------6-8x--7-8x------|
-7-16x--7-----5-----7-16x--4-----5---------|
-5------------------5----------------------|

-----------------------------------------------------------|
-----------------------------------------------------------|
-------11-9-11-------11-9-11-----11-9-11-------11-9-11-----|  1x
-----------------------------------------------------------|
-12-12---------12-12---------9-9---------12-12-------------|
-----------------------------------------------------------|

-------------------------------------------|
-------------------------------------------|
--------9-----7------------6-----7---------|  1x
-7------9-8x--7-8x--7------6-8x--7-8x------|
-7-16x--7-----5-----7-16x--4-----5---------|
-5------------------5----------------------|

-------------------------------------------------|
-------------------------------------------------|
-------------------------------------------------|
-----------7-----------7-----------7-----------7-|
-9-9-9-7-9---9-9-9-7-9---9-9-9-7-9---9-9-9-7-9---|
-------------------------------------------------|


-----------------------------------------------------|
-----------------------------------------------------|
-----------7-----------7-----------------------------|  2x
-9-9-9-7-9---9-9-9-7-9---9b/10-9-7-------------------|
-----------------------------------9-7-9-------------|
-----------------------------------------------------|

-----------------------------------------------------------|
-----------------------------------------------------------|
-------11-9-11-------11-9-11-----11-9-11-------11-9-11-----|  2x
-----------------------------------------------------------|
-12-12---------12-12---------9-9---------12-12-------------|
-----------------------------------------------------------|

-------------------------------------------|
-------------------------------------------|
--------9-----7------------6-----7---------|  2x
-7------9-8x--7-8x--7------6-8x--7-8x------|
-7-16x--7-----5-----7-16x--4-----5---------|
-5------------------5----------------------|

-------------------------------------------------|
-------------------------------------------------|
-------------------------------------------------|
-----------7-----------7-----------7-----------7-|
-9-9-9-7-9---9-9-9-7-9---9-9-9-7-9---9-9-9-7-9---|
-------------------------------------------------|


-----------------------------------------------------|
-----------------------------------------------------|
-----------7-----------7-----------------------------|  5x
-9-9-9-7-9---9-9-9-7-9---9b/10-9-7-------------------|
-----------------------------------9-7-9-------------|
-----------------------------------------------------|

--------------------------------------------------------------|
--------------------------------------------------------------|
-------11-9-11-------11-9-11-----11-9-11-------11-9-11--------|  2x
--------------------------------------------------------------|
-12-12---------12-12---------9-9---------12-12---------12-----|
--------------------------------------------------------------|
Suggest correction
Give kudos to tab author, rate the tab!
1 2 3 4 5
comments
print report bad tab
guest
You may want to rate the tab now too:
select rating
Wanna post a correction for this tab? Suggest correction