Oops, an error
Loading. Please wait.

This Is The Day chords

version 4
version 4

Whole song

by The The
70 views 6 this week
no commentswrite comment
1 2 3 4 5
3 more votes to show rating
add to favorites
×
Save as Personal and add changes to this tab that will be seen only by you. Learn more ›
×
You can save this tab as Personal to edit and correct it or add notes. All changes will be seen only by you. Learn more »
launch autoscroll
font size
0
reset
transpose
0
reset
simplify chords
display chords
guitar tuner
backing track
0:00
0:00
edit
Autoscroll
slow
fast
+/-
esc
set tempo
stop
Strumming Is this strumming pattern correct? Yes No
120 bpm
1
&
2
&
3
&
4
&
Listen
(Some Chord Voicings)

    Bb  Gm  C  Eb  D5 Cm 
E|-----------------------|
B|--3---3---5--4---3--4--|
G|--3---3---5--3---2--5--|
D|--3---5---5--5---0--5--|
A|--5---5---3--6---5--3--|
E|--6---3----------------|

Chord melody
[Theme]                                  Repeat
Beat 1 2 3 4 1 2  3   4 1 2 3  4 1 2 3 4
E|-----------3--------------------------
B|---3-------3--4-3-----5------3-4--4---
G|---3-------3------5-3-5----5---5--3---
D|---3-------4----------5--------5--5---
A|---5-------4----------3--------3--6---
E|---6-------3--------------------------
  
   1 2 3 4 1 2 3 4 1 2 3 4 1 2 3 4
E|-6-------6-------3-------3--3---
B|-3-------3-------5-------4--4--6
G|-3-------3-------5-------5--3---
D|-3-------5-------5-------5--5---
A|---------5-------3-------3--6---
E|---------3----------------------


   1 2   3  4 1 2  3  4 1 2  3 4  1   2   3   4   1
E|---------6--3-3-3-----------3---3---3-5-6-3-------
B|-3-3-4-6----3-3-3-6-3-4---6-4-6-3-6-----5---2-3---
G|-3-3--------3-3-3---3-5---------5-------3-------3-
D|-3-3--------4-4-4---4-5---------5-------5-------3-
A|-5-5--------4-4-4---4-3---------3---------------5-
E|-6-6--------3-3-3---3---------------------------6-

[Verse]
(Bass melody in verse
)
E|---------------------|
B|--3---3-----5---4----|
G|--3---3-----5---3-3--|
D|--3---5-----5-5-5----|
A|--4-4-5-5-4-3---6----|
E|--5---3--------------|

         Bb                                     Gm
Well you didn't wake up this morning 'cause you didn't go to bed
         C                           Eb
You were watching the whites of your eyes turn red
Bb             Gm               C           Eb
  The calendar on your wall was ticking the days off
            Bb               Gm
You've been reading some old letters
    C                   Eb
You smile and think how much you've changed
Bb              Gm           C            Eb
  All the money in the world couldn't buy back those days

[Chorus]
(Bass melody in chorus)
E|------------------|
B|--3-----3--4---4--|
G|--3-----2--3---5--|
D|--3-----0--5-3-5--|
A|--5-3-4-5--6---3--|
E|--6---------------|

Bb                  D5              Eb                  Cm
  You pull back the curtain and the sun burns into your eyes
Bb                  D5       Eb                Cm
  You watch a plane flying across a clear blue sky
Bb            D5       Eb               Cm
  This is the day your life will surely change
Bb            D5       Eb               Cm
  This is the day when things fall into place

[Verse]
(Bass melody in verse)
E|---------------------|
B|--3---3-----5---4----|
G|--3---3-----5---3-3--|
D|--3---5-----5-5-5----|
A|--4-4-5-5-4-3---6----|
E|--5---3--------------|

Bb                    Gm      C         Eb
  You could have done anything that you wanted
    Bb                   Gm     C                 Eb
And all your friends and family think that you're lucky
Bb                            Gm
  But the side of you they'll never see
               C                   Eb
Is when you're left alone with the memories
     Bb        Gm     C     Eb
That hold your life together glue

[Instrumental]

Beat 1 2 3 4 1   2 3 4 1   2   3 4   1   2   3 4   1 2   3   4   1   2   3 4 1 2   3   4  1 2 3  4   
E|---------------------------------------------------------------------------------------------------
B|-----3-3-----3--3------------------4-------4-------3-2-3-------3-3---3-------5-6-5-3----4--6-4-3-4-
G|-----3-3---5-3--3--------3-5-3-----3-3-----3-5-3---3-----5-3---5-3---3-------5-------5--3------3---
D|-----3-3---5-5--5------5-----5-5-3-5---5-3-5-------3---------3-5-5---5-------5-------5--5------5---
A|-------5---5----5------------3-----3-------6-------5-----------5-5---5-----3---------3--6------6---
E|---6---6-3-3----3--------------------------------6-------------3-3---3-----------------------------

   1 2   3 4  1   2   3   4   1   2   3 4   1   2   3  4   1 2   3   4   1   2   3 4 1 2   3   4  1
E|-----3----3---------------------------------------------------------------------------------------
B|-3-6---6------3-----------3---------------4----------------3-2-3-------3-3---3-------5-6-5-3----4-
G|-3-----3--------5-3-5-3-5-----3-----3-----3-3-----3--5-3---3-----5-3---5-3---3-------5-------5--3-
D|-3-----3------------3-----------5-3-5-5-3-5---5-3-5--------3---------3-5-5---5-------5-------5--5-
A|-5------------------5-------3-------3-----3-------6--------5-----------5-5---5-----3---------3--6-
E|-6----------3--------------------------------------------6-------------3-3---3--------------------



[Chorus]
(Bass melody in chorus)
E|------------------|
B|--3-----3--4---4--|
G|--3-----2--3---5--|
D|--3-----0--5-3-5--|
A|--5-3-4-5--6---3--|
E|--6---------------|

Bb                  D5              Eb                  Cm
  You pull back the curtain and the sun burns into your eyes
Bb                  D5       Eb                Cm
  You watch a plane flying across a clear blue sky
Bb            D5       Eb               Cm
  This is the day your life will surely change
Bb            D5       Eb               Cm
  This is the day when things fall into place


Bb            Gm       C                Eb
  This is the day your life will surely change
Bb            Gm       C                Eb
  This is the day your life will surely change

            
            
Suggest correction
Creating personal tab
Creating personal tab
You can edit any tab online and save it as your Personal.

You can edit, replace or remove any tab part or add personal notes – all changes will be seen only by you.

Personal tabs can be accessed anytime from any device, even offline.
Learn more »
Give kudos to tab author, rate the tab!
1 2 3 4 5
comments
print report bad tab
guest
You may want to rate the tab now too:
select rating
Wanna post a correction for this tab? Suggest correction