Oops, an error
Loading. Please wait.

Rainbow Life Bass Tab

7 views 1 this week
no commentswrite comment
1 2 3 4 5
3 more votes to show rating
add to favorites
launch autoscroll
font size
0
reset
guitar tuner
Autoscroll
slow
fast
+/-
esc
set tempo
stop
Help us to improve Ultimate-Guitar.com Take our survey!
×
Author
Difficulty
novice
Tabbed by: 6METAL6BASSIST6
E-mail: petergriffinav@gmail.com

Tuning: EADG

G|------------------------------------------------------------------------------------------------|
D|------------------------------------------------------------------------------------------------|
A|2-----------3-----------5-------3---2-----------2-----------3-----------5-------3---2-----------|
E|------------------------------------------------------------------------------------------------|

G|------------------------------------------------------------------------------------------------|
D|------------------------------------------------------------------------------------------------|
A|7-----------5-----------3-----------3---5---3---2-----------2---3---2-----------------------2-/-|
E|------------------------------------------------------------------------5-----------5-----------|

G|------------------------------------------------|
D|------------------------------------------------|
A|7---------------5---5---7---------------5---5---|
E|------------7-----------------------7-----------|

0:20

G|------------------------------------------------------------------------------------------------|
D|------------------------------------------------------------------------------------------------|
A|7---------------5---5---7---------------5---5---7---------------5---5---7---------------5---5---|
E|------------7-----------------------7-----------------------7-----------------------7-----------|

G|------------------------------------------------------------------------------------------------|
D|------------------------------------------------------------------------------------------------|
A|7-------7---5-------5---3-------3---3---5---3---2-------2---2---3---2-----------------------2-/-|
E|------------------------------------------------------------------------5-------5---5-----------|

G|------------------------------------------------|
D|------------------------------------------------|
A|7-------7-------5---5-/-7-------7-------5---5-/-|
E|------------7-----------------------7-----------|

0:38

G|------------------------------------------------------------------------------------------------|
D|------------------------------------------------------------------------------------------------|
A|7-------7-------5---5-/-7-------7-------5---5-/-7-------7-------5---5-/-7-------7-------5---5-/-|
E|------------7-----------------------7-----------------------7-----------------------7-----------|

G|------------------------------------------------------------------------------------------------|
D|------------------------------------------------------------------------------------------------|
A|7-------7---5-------5---3-------3---3---5---3---2-------2---2---3---2-----------------------2-/-|
E|------------------------------------------------------------------------5-------5---5-----------|

G|------------------------------------------------|
D|------------------------------------------------|
A|7-------7-------5---5-/-7-------7-------5---5-/-|
E|------------7-----------------------7-----------|

0:58

G|------------------------------------------------------------------------------------------------|
D|------------------------------------------------------------------------------------------------|
A|7-------7-------5---5-/-7-------7-------5---5-/-7-------7-------5---5-/-7-------7-------5---5-/-|
E|------------7-----------------------7-----------------------7-----------------------7-----------|

G|------------------------------------------------------------------------------------------------|
D|------------------------------------------------------------------------------------------------|
A|7-------7---5-------5---3-------3---3---5---3---2-------2---2---3---2-----------------------2-/-|
E|------------------------------------------------------------------------5-------5---5-----------|

G|------------------------------------------------|
D|------------------------------------------------|
A|7-------7-------5---5-/-7-------7-------5---5-/-|
E|------------7-----------------------7-----------|

1:17

G|------------------------------------------------------------------------------------------------|
D|------------------------------------------------------------------------------------------------|
A|7-------7-------5---5-/-7-------7-------5---5-/-7-------7-------5---5-/-7-------7-------5---5-/-|
E|------------7-----------------------7-----------------------7-----------------------7-----------|

G|------------------------------------------------------------------------------------------------|
D|------------------------------------------------------------------------------------------------|
A|7-------7---5-------5---3-------3---3---5---3---2-------2---2---3---2-----------------------2-/-|
E|------------------------------------------------------------------------5-------5---5-----------|

G|------------------------------------------------|
D|------------------------------------------------|
A|7-------7-------5---5-/-7-------7-------5---5-/-|
E|------------7-----------------------7-----------|

1:36

G|------------------------------------------------------------------------------------------------|
D|------------------------------------------------------------------------------------------------|
A|7-------7-------5---5-/-7---------------5---5-/-7-------7-------5---5-/-7-------7-------5---5-/-|
E|------------7-----------------------7-----------------------7-----------------------7-----------|

G|------------------------------------------------------------------------------------------------|
D|------------------------------------------------------------------------------------------------|
A|7-------7---5-------5---3-------3---3---5---3---2-------2---2---3---2-----------------------2-/-|
E|------------------------------------------------------------------------5-------5---5-----------|

G|------------------------------------------------|
D|------------------------------------------------|
A|7-------7-------5---5-/-7-------7-------5---5-/-|
E|------------7-----------------------7-----------|

1:55

G|------------------------------------------------------------------------------------------------|
D|------------------------------------------------------------------------------------------------|
A|7-------7-------5---5-/-7-------7-------5---5-/-7-------7-------5---5-/-7-----------------------|
E|------------7-----------------------7-----------------------7-------------------5---7-----------|

G|------------------------------------------------------------------------------------------------|
D|------------------------------------------------------------------------------------------------|
A|7-------7---5-------5---3-------3---3---5---3---2-----------2---3---2-----------------------2-/-|
E|------------------------------------------------------------------------5-------5---5-----------|

G|------------------------------------------------|
D|------------------------------------------------|
A|7---------------5---5---7-------7-------5---5---|
E|------------7-----------------------7-----------|

2:16

G|------------------------------------------------------------------------------------------------|
D|------------------------------------------------------------------------------------------------|
A|7-------7-------5---5---7---------------5---5-/-7-------7-------5---5-/-7---------------5---5-/-|
E|------------7-----------------------7-----------------------7-----------------------7-----------|

G|------------------------------------------------------------------------------------------------|
D|------------------------------------------------------------------------------------------------|
A|7-------7---5-------5---3-------3---3---5---3---2-------2---2---3---2-----------------------2-/-|
E|------------------------------------------------------------------------5-------5---5-----------|

G|------------------------------------------------|
D|------------------------------------------------| fades out here.
A|7---------------5---5-/-7-------7-------5---5---|
E|------------7-----------------------7-----------|
Suggest correction
Give kudos to tab author, rate the tab!
1 2 3 4 5
comments
print report bad tab
guest
You may want to rate the tab now too:
select rating
Wanna post a correction for this tab? Suggest correction