Oops, an error
Loading. Please wait.

Wow Tab

79 views 1 this week
no commentswrite comment
1 2 3 4 5
3 more votes to show rating
add to favorites
launch autoscroll
font size
0
reset
how to read this tab
guitar tuner
Autoscroll
slow
fast
+/-
esc
set tempo
stop
Help us to improve Ultimate-Guitar.com Take our survey!
×
Author
Difficulty
novice
verse

|--0--------0-------0-0-0---0-|--0---------0-------0-0-0---0-|--0---------0-------0-0-0--|
|--1--------1-------1-1-1---1-|--1---------1-------1-1-1---1-|--3---------3-------3-3-3--|
|--2--------2-------2-2-2---2-|--2---------2-------2-2-2---2-|--4---------4-------4-4-4--|
|-----------------------------|------------------------------|---------------------------|
|-----------------------------|------------------------------|---------------------------|
|-----------------------------|------------------------------|---------------------------|

|--0----|--0---------0-------0-0-0---0----|--0---------0-------0-0-0---0-----|--0--------|
|--3----|--3---------3-------3-3-3---3----|--0---------0-------0-0-0---0-----|--1--------|
|--4----|--4---------4-------4-4-4---4----|--1---------1-------1-1-1---1-----|--2--------|
|-------|---------------------------------|--2---------2-------2-2-2---2-----|-----------|
|-------|---------------------------------|----------------------------------|-----------|
|-------|---------------------------------|----------------------------------|-----------|

|--0-------0-0-0---0----|--0---------0-------0-0-0---0-------|
|--1-------1-1-1---1----|--1---------1-------1-1-1---1-------|
|--2-------2-2-2--------|--2---------2-------2-2-2---2-------|
|-----------------------|------------------------------------|
|-----------------------|------------------------------------|
|-----------------------|------------------------------------|

repeat once

chorus

|------0-0-------------0-0-------------0-0-------------0-0-----------0-|
|----------1-1-0-0---------1-1-0-0---------1-1-0-0---------1-1-0-0---1-|
|--2-2-------------2-2-------------2-2-------------2-2---------------2-|
|----------------------------------------------------------------------|
|----------------------------------------------------------------------|
|----------------------------------------------------------------------|

go back to verse

chorus 2

|------0-0-------------0-0-------------0-0-------------0-0---------|
|----------1-1-0-0---------1-1-0-0---------1-1-0-0---------1-1-0-0-|
|--2-2-------------2-2-------------2-2-------------2-2-------------|
|------------------------------------------------------------------|
|------------------------------------------------------------------|
|------------------------------------------------------------------|

|----0-------0-------0-------0-----------------------------0----------|
|------1-0-----1-0-----1-0-----0---------------------------1----------|
|--2-------2-------2-------2-------------------1-----2-----2----------|
|---------------------------------------------------------------------|
|---------------------------------------------------------------------|
|---------------------------------------------------------------------|

go back to verse

final chorus/end

|------0-0-------------0-0-------------0-0-------------0-0-----------0-|
|----------1-1-0-0---------1-1-0-0---------1-1-0-0---------1-1-0-0---1-|
|--2-2-------------2-2-------------2-2-------------2-2---------------2-|
|----------------------------------------------------------------------|
|----------------------------------------------------------------------|
|----------------------------------------------------------------------|
Suggest correction
Give kudos to tab author, rate the tab!
1 2 3 4 5
comments
print report bad tab
guest
You may want to rate the tab now too:
select rating
Wanna post a correction for this tab? Suggest correction