Oops, an error
Loading. Please wait.

Great Dj tab

version 4
version 4

Whole song

Interactive

1,668 views 1 this week
no commentswrite comment
1 2 3 4 5
3 more votes to show rating
add to favorites
×
Save as Personal and add changes to this tab that will be seen only by you. Learn more ›
×
You can save this tab as Personal to edit and correct it or add notes. All changes will be seen only by you. Learn more »
launch autoscroll
font size
0
reset
how to read this tab
guitar tuner
edit
Autoscroll
slow
fast
+/-
esc
set tempo
stop
Author
“Great DJ” by The Ting Tings from We Started Nothing
you repeat wat comes frist so on da verse u play da frist section 4 time and do da last 
one time
dis is my frist tabs so worry if its hard to read email me @

Jmramirez13@aol.com if u need any help understandin it no stangers lol


Intro: 8 times

e|----2-2-2-2-2-2-2-2-2-2-2---2-2-2-2-2------------------------------------|
B|----3-3-3-3-3-3-3-3-3-3-3---3-3-3-3-3------------------------------------|
G|----2-2-2-2-2-2-2-2-3-3-3---3-3-3-3-3------------------------------------|
D|-------------------------------------------------------------------------|
A|-------------------------------------------------------------------------|
E|-------------------------------------------------------------------------|

Verse: 3 times and 1 time

e|----2-2-2-2-2-2-2-2-2-2-2---2-2-2-2-2------------------------------------|
B|----3-3-3-3-3-3-3-3-3-3-3---3-3-3-3-3------------------------------------|
G|----2-2-2-2-2-2-2-2-3-3-3---3-3-3-3-3------------------------------------|
D|-------------------------------------------------------------------------|
A|-------------------------------------------------------------------------|
E|-------------------------------------------------------------------------|

e|----2-2-2-2-2-2-2-2-2-2-2-----------|
B|----3-3-3-3-3-3-3-3-3-3-3-----------|
G|----2-2-2-2-2-2-2-2-3-3-3-----------|
D|------------------------------------|
A|------------------------------------|
E|------------------------------------|

Chorus: 4 times

e|---------8-8-8-8---------10-10-10-10-------------------------------------|
B|-----------------8-8-8-8-------------10---10-10-10-----------------------|
G|-------------------------------------------------------------------------|
D|-------------------------------------------------------------------------|
A|-------------------------------------------------------------------------|
E|-------------------------------------------------------------------------|


Verse: 5 times then 1

e|----2-2-2-2-2-2-2-2-2-2-2---2-2-2-2-2------------------------------------|
B|----3-3-3-3-3-3-3-3-3-3-3---3-3-3-3-3------------------------------------|
G|----2-2-2-2-2-2-2-2-3-3-3---3-3-3-3-3------------------------------------|
D|-------------------------------------------------------------------------|
A|-------------------------------------------------------------------------|
E|-------------------------------------------------------------------------|

e|----2-2-2-2-2-2-2-2-2-2-2---2-2-2-2--------------------------------------|
B|----3-3-3-3-3-3-3-3-3-3-3------------------------------------------------|
G|----2-2-2-2-2-2-2-2-3-3-3------------------------------------------------|
D|-------------------------------------------------------------------------|
A|-------------------------------------------------------------------------|
E|-------------------------------------------------------------------------|

Verse; 4 times and then 1 time

e|----2-2-2-2-2-2-2-2-2-2-2---2-2-2-2-2------------------------------------|
B|----3-3-3-3-3-3-3-3-3-3-3---3-3-3-3-3------------------------------------|
G|----2-2-2-2-2-2-2-2-3-3-3---3-3-3-3-3------------------------------------|
D|-------------------------------------------------------------------------|
A|-------------------------------------------------------------------------|
E|-------------------------------------------------------------------------|

e|----2-2-2-2-2-2-2-2-2-2-2-----------|
B|----3-3-3-3-3-3-3-3-3-3-3-----------|
G|----2-2-2-2-2-2-2-2-3-3-3-----------|
D|------------------------------------|
A|------------------------------------|
E|------------------------------------|


Chorus: 4 times

e|---------8-8-8-8---------10-10-10-10-------------------------------------|
B|-----------------8-8-8-8-------------10---10-10-10-----------------------|
G|-------------------------------------------------------------------------|
D|-------------------------------------------------------------------------|
A|-------------------------------------------------------------------------|
E|-------------------------------------------------------------------------|


Verse: 4 times

e|----2-2-2-2-2-2-2-2-2-2-2---2-2-2-2-2------------------------------------|
B|----3-3-3-3-3-3-3-3-3-3-3---3-3-3-3-3------------------------------------|
G|----2-2-2-2-2-2-2-2-3-3-3---3-3-3-3-3------------------------------------|
D|-------------------------------------------------------------------------|
A|-------------------------------------------------------------------------|
E|-------------------------------------------------------------------------|

Chorus: 4 times/4 times/3 times end wit last section

e|---------8-8-8-8---------10-10-10-10-------------------------------------|
B|-----------------8-8-8-8-------------10---10-10-10-----------------------|
G|-------------------------------------------------------------------------|
D|-------------------------------------------------------------------------|
A|-------------------------------------------------------------------------|
E|-------------------------------------------------------------------------|

e|---------8-8-8-8---------10-10-10-10-------------------------------------|
B|-----------------8-8-8-8-------------10----------------------------------|
G|-------------------------------------------------------------------------|
D|-------------------------------------------------------------------------|
A|-------------------------------------------------------------------------|
E|-------------------------------------------------------------------------|

            
            
Suggest correction
Creating personal tab
Creating personal tab
You can edit any tab online and save it as your Personal.

You can edit, replace or remove any tab part or add personal notes – all changes will be seen only by you.

Personal tabs can be accessed anytime from any device, even offline.
Learn more »
Give kudos to tab author, rate the tab!
1 2 3 4 5
comments
print report bad tab
guest
You may want to rate the tab now too:
select rating
Wanna post a correction for this tab? Suggest correction