Oops, an error
Loading. Please wait.

Shut And Let Me Go Tab

5,956 views 1 this week
no commentswrite comment
1 2 3 4 5
please rate
add to favorites
launch autoscroll
font size
0
reset
how to read this tab
guitar tuner
Tab Pro tools
  • play this tab
  • loop segment
  • change instrument
  • show fretboard
  • metronome
Autoscroll
slow
fast
+/-
esc
set tempo
stop
Here is the tab
here is the tab
here is that tab that you've been looking for
here is the tab
here is the tab
...lala

E|-----|-----|
B|-----|--x--|
G|-----|--x--| Do this several times
D|-----|--x--|
A|-----|-----|
E|-----|-----|

Then after that you listen to the song to get the other parts right. I know it's hard to 
the tab above but just try real hard. Use your pointer on the D string, middle to the G 
ringman to the B. That's all to it. Anyway you suckers don't know what to do.
So here's the real tab..

----------
INTRO
----------

e|---------------------------------|---------------------------------|
B|-------3---------------2---------|---------------------------------|
G|-----4-----4---4-----4-----4---4-|-------7---------------6---4-----|
D|---4---------4-----4---------4---|-----5-----5---5-----5-------5---|
A|-2---------------2---------------|---5---------5-----5-----------5-|
E|---------------------------------|-3---------------3---------------|


----------
VERSE
----------


e|---------------------------------|---------------------------------|
B|-------3---------------2---------|---------------------------------|
G|-----4-----4---4-----4-----4---4-|-------7---------------6---4-----|
D|---4---------4-----4---------4---|-----5-----5---5-----5-------5---|
A|-2---------------2---------------|---5---------5-----5-----------5-|
E|---------------------------------|-3---------------3---------------|


e|---------------------------------|---------------------------------|
B|-------7-------------------------|-------3---------------2---------|
G|-----7-----7-----------7---------|-----4-----4---4-----4-----4---4-|
D|---7---------7-------7-----7-----|---4---------4-----4---------4---|
A|-5-------------5---7---------7---|-2---------------2---------------|
E|-----------------9-------------9-|---------------------------------|


e|---------------------------------|---------------------------------|
B|---------------------------------|-------7-------------------------|
G|-------7---------------6---4-----|-----7-----7-----------7---------|
D|-----5-----5---5-----5-------5---|---7---------7-------7-----7-----|
A|---5---------5-----5-----------5-|-5-------------5---7---------7---|
E|-3---------------3---------------|-----------------9-------------9-|


e|-5-5-5-5-5-5-5-5-|
B|-5-5-5-5-5-5-5-5-|
G|-7-7-7-7-7-7-7-7-|
D|-7-7-7-7-7-7-7-7-|
A|-7-7-7-7-7-7-7-7-|
E|-5-5-5-5-5-5-5-5-|

There you are!
Try your luck and know the song.
This song is quite familiar anyway.
Enjoy
comments
We did not receive enough feedback on this tab! Please rate:
print report bad tab
1 2 3 4 5
I want to post or [tab]
guest
You may want to rate the tab now too:
select rating
Please do not post tabs as comments. Select "correction" instead!