Oops, an error
Loading. Please wait.

Thats Not My Name bass

version 2
version 2

Whole song

2,089 views 18 this week
no commentswrite comment
1 2 3 4 5
2 more votes to show rating
add to favorites
×
Save as Personal and add changes to this tab that will be seen only by you. Learn more ›
×
You can save this tab as Personal to edit and correct it or add notes. All changes will be seen only by you. Learn more »
launch autoscroll
font size
0
reset
guitar tuner
edit
Autoscroll
slow
fast
+/-
esc
set tempo
stop
Author
Difficulty
Hey guys, this is the bass version of That's Not My Name.
I made it by ear and it's about right, you should be able to easily hear all the timing.
Please send me a message with questions/suggestions! Have fun!




Intro
4 measures rest

                                                  
Verse                                                          
G |-------|--------|-------|--------|
D |*------|--------|-------|-------*|
A |*------|--------|-------|-------*|
E |--0-0--|--00-0--|--0-0--|--00-0--|
                            ________ _________
                            |1.      |2.
G |-------|--------|-------|--------|---------|
D |*------|--------|-------|-------*|---------|
A |*------|--------|-------|-------*|---------|
E |--5-5--|--55-5--|--5-5--|--55-5--|--5-5-5--|


Chorus
G |-------|-------|-------|-------|-------|-------|-------|-----------|
D |*------|-------|-------|-------|---7---|---7---|---7---|----------*| 
A |*--7---|---7---|---7---|---7---|-------|-------|-------|----------*|
E |--0-0--|--0-0--|--0-0--|--0-0--|--5-5--|--5-5--|--5-5--|-(55)5577--|


Verse                                                          
G |-------|--------|-------|--------|
D |*------|--------|-------|-------*|
A |*------|--------|-------|-------*|
E |--0-0--|--00-0--|--0-0--|--00-0--|
                            ________ _________
                            |1.      |2.
G |-------|--------|-------|--------|---------|
D |*------|--------|-------|-------*|---------|
A |*------|--------|-------|-------*|---------|
E |--5-5--|--55-5--|--5-5--|--55-5--|--5-5-5--|


Chorus
G |-------|-------|-------|-------|-------|-------|-------|-----------|
D |*------|-------|-------|-------|---7---|---7---|---7---|----------*| 
A |*--7---|---7---|---7---|---7---|-------|-------|-------|----------*|
E |--0-0--|--0-0--|--0-0--|--0-0--|--5-5--|--5-5--|--5-5--|--9\-5577--|


Interlude
G |-------|---------|---------|--------|-------|---------|
D |*------|---------|---------|--------|-------|---------|
A |*------|---------|---------|--------|-------|---------|
E |--0-0--|--0-0-0--|--0-0-0--|--0-0-0-|--5-5--|--5-5-5--|

G |---------|---------|
D |---------|--------*|
A |---------|--------*|
E |--5-5-5--|--5-5-5--|


Chorus                                                                4x
G |-------|-------|-------|-------|-------|-------|-------|------------|
D |*------|-------|-------|-------|---7---|---7---|---7---|-----------*| 
A |*--7---|---7---|---7---|---7---|-------|-------|-------|-----------*|
E |--0-0--|--0-0--|--0-0--|--0-0--|--5-5--|--5-5--|--5-5--|--xxxx5577--|

G |---------|
D |---------|
A |---------|
E |--0~~~~--|



Note: Last chorus measure is just a suggestion; you can play around with it.

            
            
Suggest correction
Creating personal tab
Creating personal tab
You can edit any tab online and save it as your Personal.

You can edit, replace or remove any tab part or add personal notes – all changes will be seen only by you.

Personal tabs can be accessed anytime from any device, even offline.
Learn more »
Give kudos to tab author, rate the tab!
1 2 3 4 5
comments
print report bad tab
guest
You may want to rate the tab now too:
select rating
Wanna post a correction for this tab? Suggest correction