Oops, an error
Loading. Please wait.

Razor Cut Bass Tab

239 views 1 this week
no commentswrite comment
1 2 3 4 5
please rate
add to favorites
launch autoscroll
font size
0
reset
guitar tuner
Tab Pro tools
  • play this tab
  • loop segment
  • change instrument
  • show fretboard
  • metronome
Autoscroll
slow
fast
+/-
esc
set tempo
stop
Contributor
-------------------------------------------------------------------------------
                          The Toasters - Razor Cut
-------------------------------------------------------------------------------


Legend:

H    Half note
Q    Quarter note
E    Eight note
[]   Rest
__   Tie
()   Tied note


Main Riff

    Q   Q   Q   E E____E Q   E Q   E E    Q   Q   Q   E E____E Q   E Q   E E
G|----------6---7-6-|-(6)------6---7-6-|----------4---5-4-|-(4)------4---5-4--|
D|------9-----------|--------9---------|------7-----------|--------7----------|
A|--7---------------|----7-------------|--5---------------|----5--------------|
E|------------------|------------------|------------------|-------------------|

    Q   Q   Q   E E____E Q   E Q   E E    Q   Q   Q   Q______E  Q   E Q   Q
G|------------------|------------------|------9---6-------|---------9-6-------|
D|----------5---5-4-|-(4)------4---5-4-|--------------9---|-(9)-----------9---|
A|------7-----------|--------7---------|--7---------------|-----7-------------|
E|--5---------------|----5-------------|------------------|-------------------|

Verse

    Q   Q   Q   Q      Q   Q   Q   Q      Q   Q   Q   Q      Q   Q   Q   Q
G|------------------|------------------|------------------|-------------------|
D|------6---9---6---|--7---------------|------------------|------6---9---6----|
A|--7---------------|------9-------9---|------4---7---4---|--7----------------|
E|------------------|---------10-------|--5---------------|-------------------|

Chorus

    Q   Q   Q   Q      Q   Q   Q   Q      Q   Q   Q   Q      Q   Q   Q   Q
G|------------------|------------------|------9---6-------|------9---6--------|
D|------------------|----------7-------|--------------9---|--------------9----|
A|------------------|--5---5-------9---|--7---------------|--7----------------|
E|--3---3---3---3---|------------------|------------------|-------------------|

    Q   Q   Q   Q      Q   Q   Q   Q      Q   Q   E E E E    Q   Q   Q   Q
G|------------------|------------------|------------------|-------------------|
D|------------------|----------7-------|------------7-----|----------9--------|
A|------------------|--5---5-------9---|----------7---7---|------9-------6----|
E|--3---3---3---3---|------------------|--5---5---------5-|--7----------------|

Bridge (during guitar solo)

    Q   Q   Q   Q______E Q   E E E E E    Q   Q   Q   Q______E Q   E E E E E
G|------9---7-------|--------9-7-------|------7---5-------|--------7-5--------|
D|--------------9---|-(9)--------9-7-9-|--------------7---|-(7)--------7-5-7--|
A|--7---------------|----7-------------|--5---------------|----5--------------|
E|------------------|------------------|------------------|-------------------|

    Q   Q   Q   Q______E Q   E E E E E    E E[E]E E[E]E E  [E] E E[E]Q   Q
G|------------------|------------------|----9-----9-----9-|------9-------9----|
D|------7---5-------|--------4-5-------|------------------|----------9--------|
A|--------------7---|-(7)--------7-5-7-|--7-----7-----7---|----7--------------|
E|--5---------------|----5-------------|------------------|-------------------|
comments
We did not receive enough feedback on this tab! Please rate:
print report bad tab
1 2 3 4 5
I want to post or [tab]
guest
You may want to rate the tab now too:
select rating
Please do not post tabs as comments. Select "correction" instead!