Oops, an error
Loading. Please wait.

Ska Killers Bass Tab

877 views 1 this week
no commentswrite comment
1 2 3 4 5
excellent!
x 1
add to favorites
launch autoscroll
font size
0
reset
guitar tuner
Tab Pro tools
  • play this tab
  • loop segment
  • change instrument
  • show fretboard
  • metronome
Autoscroll
slow
fast
+/-
esc
set tempo
stop
Contributor
Difficulty
novice
Tabbed By : Joe-Fish
e-mail: h00kd_on_foniks@yahoo.com

Tuning: EADG (standard)

INTRO: Play 8 times
G|--------------------------------------------------------------------------|
D|--------------------------------------------------------------------------|
A|--------------------------------------------------------------------------|
E|--00-0-0-0-0--33-55-------------------------------------------------------|

Verse
G|--------------------------------------------------------------------------|
D|--------------2---4-2-----------------------------------------------------|
A|--------22-44---------4-2-------------------------------------------------|
E|--00-44-------------------------------------------------------------------|

1:42 Play 12 times
G|--------------------------------------------------------------------------|
D|--------------------------------------------------------------------------|
A|--------------------------------------------------------------------------|
E|--00-0-0-0-0--33-55-------------------------------------------------------|

Verse 2 Played until the end of the song
G|--------------------------------------------------------------------------|
D|--------------2---4-2-----------------------------------------------------|
A|--------22-44---------4-2-------------------------------------------------|
E|--00-44-------------------------------------------------------------------|

There are small blues fills in each verse.


| /  slide up
| \  slide down
| h  hammer-on
| p  pull-off
| ~  vibrato
| +  harmonic
| x  Mute note
comments
We did not receive enough feedback on this tab! Please rate:
print report bad tab
1 2 3 4 5
I want to post or [tab]
guest
You may want to rate the tab now too:
select rating
Please do not post tabs as comments. Select "correction" instead!