Oops, an error
Loading. Please wait.

I Dont Mind Tab

1,874 views 1 this week
no commentswrite comment
1 2 3 4 5
please rate
add to favorites
launch autoscroll
font size
0
reset
how to read this tab
guitar tuner
Tab Pro tools
  • play this tab
  • loop segment
  • change instrument
  • show fretboard
  • metronome
×
Best way to learn
"I Dont Mind"
Autoscroll
slow
fast
+/-
esc
set tempo
stop
Contributor
Capo
3rd fret
I Don’t Mind – Peter Bingen   Solo - Ron Power

As Performed by the Tobasco Donkeys on their first cd "Sawin' on the Strings"
Tabbed by flyslyguy007@gmail.com

CAPO III  

All fret numbers are in reference to the 3rd fret, NOT the nut.
This is how I play I Don’t Mind, all from ear but it sounds good!

Played throughout whole song.

   C           C/B    Am      Am/G       F                 G
e-----0000-----0000-----0000-----00---00----1111-----1111----3333----3333---|
B-----1111-----1111-----1111-----11---11----1111-----1111----0000----0010--o|
G-----0000-----0000-----2222-----02---22----2222-----2222----0000----0000----
D-----2222-----2222-----2222-----22---22----3333-----3333----0000----0000---|
A--3--------2--------0--------0-------------3333-----3333----2222----2222--o|
E-----------------------------------3----1--------1--------3-------3--------|

   F                C       C/B     F               C
e-----1111----1111----0000----0000----1111----1111----0000----0000----------|
B-----1111----1111----1111----1111----1111----1111----1111----1111----------|
G-----2222----2222----0000----0000----2222----2222----0000----0000----------|
D-----3333----3333----2222----2222----3333----3333----2222----2222----------|
A-----3333----3333--3-------2---------3333----3333--3-------3---------------|
E--1--------1-----------------------1-------1-------------------------------|

  F                Am7        G
e----1111----1111----0000-------3333----|
B----1111----1111----1111-------0000----|
G----2222----2222----0000-X4----0000-X4-|
D----3333----3333----2222-------0000----|
A----3333----3333--0------------2222----|
E--1-------1------------------3---------|


SOLO – play “/” as hammer on, pull-off, or slide when appropriate.
CAPO III 

e-------------------|---------8--8---|--5--7--7/8--10--10------------|
B---1--1/3-5--6--5--|--5/6-8---------|-------------------------------|
G-------------------|----------------|-------------------------------|     
D-------------------|----------------|-------------------------------|
A-------------------|----------------|-------------------------------|
E-------------------|----------------|-------------------------------|

e---5--8—7/8/7-5-3-0-0-1-0-----------|--------------------------------|
B---------------------------3--1-----|--3/5-3/5-3/1-------------------|
G------------------------------------|--------------2/5-0/2-0---------|     
D------------------------------------|--------------------------------|
A------------------------------------|--------------------------------|
E------------------------------------|--------------------------------|

e------------------------|---------------------|----------------------|
B-----------1-1/3-5-6-8--|--888-6-5/6/5-3-1-1--|--1-1/3—3/5-5/6-6-----|
G-------0/2--------------|---------------------|----------------------|     
D---0/2------------------|---------------------|----------------------|
A------------------------|---------------------|----------------------|
E------------------------|---------------------|----------------------|

e-----------8-8----------------|-----------------------|--------------|
B--5-5-6-8------5/6-6-8-8-6-6--|3—1/3---3-3/1---1-3/5--|--5-5-3-3-1-3-|
G------------------------------|-------0-------2-------|--------------|     
D------------------------------|-----------------------|--------------|
A------------------------------|-----------------------|--------------|
E------------------------------|-----------------------|--------------|

e--------------------------|
B—5/6-6-8-8/10-10/12--12---|
G--------------------------|     
D--------------------------|
A--------------------------|
E--------------------------|

Enjoy! I love Philmont!
comments
We did not receive enough feedback on this tab! Please rate:
print report bad tab
1 2 3 4 5
I want to post or [tab]
guest
You may want to rate the tab now too:
select rating
Please do not post tabs as comments. Select "correction" instead!