Oops, an error
Loading. Please wait.

Grey City Day Bass Tab

13 views 1 this week
no commentswrite comment
1 2 3 4 5
3 more votes to show rating
add to favorites
launch autoscroll
font size
0
reset
guitar tuner
Autoscroll
slow
fast
+/-
esc
set tempo
stop
Help us to improve Ultimate-Guitar.com Take our survey!
×
Author
Difficulty
novice
Tabbed by: 6METAL6BASSIST6
E-mail: petergriffinav@gmail.com

Tuning: EADG

G|--------------------------------------------------|
D|--------------------------------------------------|
A|--------------------------------------------------|
E|--------------------------------------------------|

G|------------------------6-----------------------------------------------6-----------------------|
D|------------6-----------------------6-----------------------6-----------------------6-----------|
A|4-----------------------------------------------4-----------------------------------------------|
E|------------------------------------------------------------------------------------------------|

G|------------------------------------------------------------------------------------|
D|4-----------------------4-----------------------4-----------------------4-----------|
A|------------4-----------------------4-----------------------4-----------------------|
E|------------------------------------------------------------------------------------|

G|------------------------------------------------6-------6-8-6-----------|
D|----------/-6-----------------------6-----------------------------6-----|
A|6-----------------------4-----------------------------------------------|
E|------------------------------------------------------------------------|

0:30

G|------------------------------------------------------------------------6-----------------------|
D|------------6-----------------------6-----------------------6-----------------------6-----------|
A|4-----------------------4-----------------------4-----------------------------------------------|
E|------------------------------------------------------------------------------------------------|

G|------------------------------------------------------------------------------------|
D|4-----------------------4-----------------------4-----------------------4-----------|
A|------------4-----------------------4-----------------------4-----------------------|
E|------------------------------------------------------------------------------------|

G|------------------------------------------------6-------6-8-6-----------|
D|------------6-----------------------6-----------------------------6-\---|
A|6-----------------------4-----------------------------------------------|
E|------------------------------------------------------------------------|

0:52

G|------------------------6-------6-8-6-----------------------------------6-------6-8-6-----------|
D|------------6-----------------------------6-----------------6-----------------------------6-----|
A|4-----------------------------------------------4-----------------------------------------------|
E|------------------------------------------------------------------------------------------------|

G|----------------------------------------------------------------|
D|----------------------------------------------------------------|
A|4-------------------------------------------------------4-------|
E|----------------------------------------------------------------|

1:06

G|----------------------------------------------------------------|
D|4---------------4-------2-------1---------------6---------------|
A|----------------------------------------------------------------|
E|----------------------------------------------------------------|

G|------------8-------10----------------------8-------10----------|
D|----6-------------------------------6---------------------------|
A|4-------------------------------4-------------------------------|
E|----------------------------------------------------------------|

G|----------------------------------------------------------------|
D|4-----------4---4-------2-------1-----------1---1---------------|
A|----------------------------------------------------------------|
E|----------------------------------------------------------------|

G|------------------------------------------------------------------------------------------------|
D|6---------/-6-------6---6-/-6---6---6-----/-6---6---6---6---6-----------------------------------|
A|------------------------------------------------------------------------------------------------|
E|------------------------------------------------------------------------------------------------|

G|------------------------6-------6-8-6-----------------------------------7-------7-9-7-----------|
D|------------6-----------------------------6-----------------7-----------------------------7-----|
A|4-----------------------------------------------5-----------------------------------------------|
E|------------------------------------------------------------------------------------------------|

1:39

G|------------------------7-----------------------------------------------7-----------------------|
D|------------7-----------------------7-----------------------7-----------------------7-----------|
A|5-----------------------------------------------5---------------------------------------------5-|
E|------------------------------------------------------------------------------------------------|

G|------------------------------------------------------------------------------------|
D|5-----------------------5-----------------------5-----------------------5-----------|
A|------------5-----------------------5---------5-------------5-----------------------|
E|------------------------------------------------------------------------------------|

G|------------------------------------------------7-------7-9-7-----------|
D|------------7-----------------------7-----------------------------7-----|
A|7-----------------------5-----------------------------------------------|
E|------------------------------------------------------------------------|

2:01

G|------------------------7-------7-9-7-----------------------------------7-------7-9-7-----------|
D|------------7-----------------------------7-----------------7-----------------------------7-----|
A|5-----------------------------------------------5-----------------------------------------------|
E|------------------------------------------------------------------------------------------------|

G|------------------------7-------7-9-7-----------------------------------|
D|------------7-----------------------------7-\---------------7-----------| fades out here.
A|5-----------------------------------------------5-----------------------|
E|------------------------------------------------------------------------|
Suggest correction
Give kudos to tab author, rate the tab!
1 2 3 4 5
comments
print report bad tab
guest
You may want to rate the tab now too:
select rating
Wanna post a correction for this tab? Suggest correction