Oops, an error
Loading. Please wait.

Boccherini tab

489 views 1 this week
2 commentsread comments
1 2 3 4 5
1 last vote to show rating
add to favorites
×
Save as Personal and add changes to this tab that will be seen only by you. Learn more ›
×
You can save this tab as Personal to edit and correct it or add notes. All changes will be seen only by you. Learn more »
launch autoscroll
font size
0
reset
how to read this tab
guitar tuner
edit
Autoscroll
slow
fast
+/-
esc
set tempo
stop
boccherini 



the toy dolls



album: our last live dvd



TRANSCRIBED BY RUDY GUZMAN



guzman_84@hotmail.com



e:------|
B:------|
G:-9-9--|
D:-9-9--|
A:-7-7--|
E:-0-0--|
                                               
e:--------------------------------------------------------------|
B:-10-9-10-12-10------------------------------------------------|
G:---------------------6-6-9-9-7-7---7-6-7-9-7----------7-7p6-6-|
D:----------------7-7-------------------------------6-6---------|
A:----------------------------------------------7-7-------------|
E:--------------------------------------------------------------|

e:---------------------------------------------------------------------------|
B:-/10-----------/10-----------/10----9-------10--7h9p7h9p7h9p7h9p7h9p7------|
G:-----11-9-8-8------11-9-8-8------11----9-------------------------------9---|
D:-----------------------------------------11--------------------------------|
A:---------------------------------------------------------------------------|
E:---------------------------------------------------------------------------|

e:------|
B:------|
G:-9-9--|
D:-9-9--|
A:-7-7--|
E:-0-0--|
                                               
e:--------------------------------------------------------------|
B:-10-9-10-12-10------------------------------------------------|
G:---------------------6-6-9-9-7-7---7-6-7-9-7----------7-7p6-6-|
D:----------------7-7-------------------------------6-6---------|
A:----------------------------------------------7-7-------------|
E:--------------------------------------------------------------|

e:---------------------------------------------------------------------------|
B:-/10-----------/10-----------/10----9-------10--7h9p7h9p7h9p7h9p7h9p7------|
G:-----11-9-8-8------11-9-8-8------11----9-------------------------------9---|
D:-----------------------------------------11--------------------------------|
A:---------------------------------------------------------------------------|
E:---------------------------------------------------------------------------|

e:-------------------------------------|
B:-------------------------------------|
G:-9-99999999999999999999999999999--9--|
D:-9-99999999999999999999999999999--9--|
A:-7-77777777777777777777777777777--7--|
E:-0-00000000000000000000000000000--0--|



hillo son mex

16/05/12

            
            
Suggest correction
Creating personal tab
Creating personal tab
You can edit any tab online and save it as your Personal.

You can edit, replace or remove any tab part or add personal notes – all changes will be seen only by you.

Personal tabs can be accessed anytime from any device, even offline.
Learn more »
Give kudos to tab author, rate the tab!
1 2 3 4 5
comments
print report bad tab
2 comments total.
0 reply
Funtom5 10 Apr 26, 2013 07:51 PM

Love it thank you I wanted to learn this song from Master and Commander.

0 reply
nalga_leprosa 3,708 Sep 21, 2013 10:26 AM

glad you like the tab sorry for my delay in writting back i didnt get this comment or a notification or rate in my inbox i saw it was rate while a was looking the list of tabs that i've done
but thanx for the comment and the rate
i appreciate it

guest
You may want to rate the tab now too:
select rating
Wanna post a correction for this tab? Suggest correction