Oops, an error
Loading. Please wait.

Smoke Two Joints Tab

4,491 views 12 this week
2 commentsread comments
1 2 3 4 5
1 last vote to show rating
add to favorites
launch autoscroll
font size
0
reset
how to read this tab
guitar tuner
Autoscroll
slow
fast
+/-
esc
set tempo
stop
Help us to improve Ultimate-Guitar.com Take our survey!
×
Author
Difficulty
The Toyes - Smoke Two Joints
Tuning: eBGDAE

http://www.thetoyes.com/

INTRO/VERSE:
Figure 1a: (Play 7 times)
e--7-7---7----7-7---5----3-3---3----3--5--|
B--7-7---7----7-7---5----3-3---3----3--5--|
G--8-8---8----8-8---6----4-4---4----4--6--|
D--9-9---9----9-9---7----5-5---5----5--7--|
A--9-9---9----9-9---7----5-5---5----5--7--|
E--7-7---7----7-7---5----3-3---3----3--5--|

Figure 1b: (Play 8th time)
e--7-7---7----7-7---5----3-3---3---5--|
B--7-7---7----7-7---5----3-3---3---5--|
G--8-8---8----8-8---6----4-4---4---6--|
D--9-9---9----9-9---7----5-5---5---7--|
A--9-9---9----9-9---7----5-5---5---7--|
E--7-7---7----7-7---5----3-3---3---5--|


CHORUS:
"My daddy, he once told me..."
e--7-7---7----7-7---7----3-3---3----3----3--|
B--7-7---7----7-7---7----3-3---3----3----3--|
G--8-8---8----8-8---8----4-4---4----4----4--|
D--9-9---9----9-9---9----5-5---5----5----5--|
A--9-9---9----9-9---9----5-5---5----5----5--|
E--7-7---7----7-7--7----3-3---3----3----3--|

"My mama, she once told me..."
e--7-7---7----7-7---7----3-3---3----3-3---3--|
B--7-7---7----7-7---7----3-3---3----3-3---3--|
G--8-8---8----8-8---8----4-4---4----4-4---4--|
D--9-9---9----9-9---9----5-5---5----5-5---5--|
A--9-9---9----9-9---9----5-5---5----5-5---5--|
E--7-7---7----7-7---7----3-3---3----3-3---3--|

"But then one day.."
e--5-5---5----5-5---5----3-3---3----3-3---3--|
B--5-5---5----5-5---5----3-3---3----3-3---3--|
G--6-6---6----6-6---6----4-4---4----4-4---4--|
D--7-7---7----7-7---7----5-5---5----5-5---5--|
A--7-7---7----7-7---7----5-5---5----5-5---5--|
E--5-5---5----5-5---5----3-3---3----3-3---3--|

"Hard work good, hard work fine..."
e--5-5---5----3-3---3------2----2----2--|
B--5-5---5----3-3---3------2----2----2--|
G--6-6---6----4-4---4------3----3----3--|
D--7-7---7----5-5---5------4----4----4--|
A--7-7---7----5-5---5------4----4----4--|
E--5-5---5----3-3---3------2----2----2--|


SECOND VERSE:
Play Figure 1a four times for the second verse.


SOLO:
e--10-10-10-------9----10p9p7--------------------------------|
B----------------------------------10b12r10p7----------------|
G-----------11-11-----------------------------9b11r9-9b10r9--|
D------------------------------------------------------------|
A------------------------------------------------------------|
E------------------------------------------------------------|

e--10-10-10-------9----9-10-7---------------------------|
B-----------------------------8-10-7--------------------|
G-----------11-11--------------------7-9-6-4-4-6b7r6~~--|
D-------------------------------------------------------|
A-------------------------------------------------------|
E-------------------------------------------------------|

e--10p7-------10------------------------|
B-------10b12====r10-7---7p5---5---7----|
G----------------------------7---7---7--|
D---------------------------------------|
A---------------------------------------|
E---------------------------------------|

e--7---10-9-10-10/12--10-10-10--------------|
B--8---------------------------------10-----|
G------------------------------11-11----11--|
D-------------------------------------------|
A-------------------------------------------|
E-------------------------------------------|

Play the chorus again, then play figure 1a four times, then play figure 1b until 
the song fades out.


*Little lick towards the end*
e--10-10-10-------9-10-------|
B----------------------------|
G-----------11-11------11~~--|
D----------------------------|
A----------------------------|
E----------------------------|
Suggest correction
Give kudos to tab author, rate the tab!
1 2 3 4 5
comments
print report bad tab
2 comments total.
0 reply
9finger10toe 10 Jan 07, 2014 01:15 PM

Having a hard time getting the muscle memory. This looks like Mawg Toye could have posted it?

0 reply
ssulun 20 Oct 17, 2015 09:56 AM

I play Bm instead of B and F#7 (9th fret) instead of F#

So 777997 instead of 778997 and 9(11)9(11)99 instead of 223442

guest
You may want to rate the tab now too:
select rating
Wanna post a correction for this tab? Suggest correction