Oops, an error
Loading. Please wait.

As I Wind Down The Pipes Tab

672 views 3 this week
3 commentsread comments
1 2 3 4 5
please rate
add to favorites
launch autoscroll
font size
0
reset
how to read this tab
guitar tuner
Tab Pro tools
  • play this tab
  • loop segment
  • change instrument
  • show fretboard
  • metronome
×
Best way to learn
"As I Wind Down The Pipes"
Autoscroll
slow
fast
+/-
esc
set tempo
stop
Contributor
----------------------------------------------------------------------------
               AS I WIND DOWN THE PIPES - Tragically Hip
----------------------------------------------------------------------------
Tabbed By: ONeil 17
Email: oneil_al@hotmail.com

Tuning: e,B,G,D,A,E


e|-------2-----------2-----------------0-----------0------|
G|-----2---2-------2---2-------------2---2-------2---2----|
B|---4-------4---4-------4---------2-------2---2-------2--|
D|-4-----------4-----------4-4-4-2-----------2-----------2|
A|--------------------------------------------------------|
E|--------------------------------------------------------|

| /  slide up
| \  slide down
| h  hammer-on
| p  pull-off
| ~  vibrato
| +  harmonic
| x  Mute note
============================================================================


comments
We did not receive enough feedback on this tab! Please rate:
print report bad tab
1 2 3 4 5
3 comments total.
0 reply
potatoes123 wrote on December 4 2007, 07:49 pm

It sounds alright, maybe a few parts missing, but other than that its pretty goodd.

PS: It's actually called: As I
Wind Down The Pines :)

0 reply
potatoes123 wrote on December 4 2007, 07:49 pm

It sounds alright, maybe a few parts missing, but other than that its pretty goodd.

PS: It's actually called: As I
Wind Down The Pines :)

0 reply
Baboulai wrote on December 11 2008, 11:56 pm

should be * * * *
e|-------2-----------2---------------0-0-0-------0-0-0----|
G|-----2---2-------2---2-------------2---2-------2---2----|
B|---4-------4---4-------4---------2-------2---2-------2--|
D|-4-----------4-----------4-4-4-2-----------2-----------2|
A|--------------------------------------------------------|
E|--------------------------------------------------------|

I want to post or [tab]
guest
You may want to rate the tab now too:
select rating
Please do not post tabs as comments. Select "correction" instead!