Oops, an error
Loading. Please wait.

Blow At High Dough bass

version 1
version 1

Whole song

Interactive

1,921 views 15 this week
no commentswrite comment
1 2 3 4 5
x 4
add to favorites
×
Save as Personal and add changes to this tab that will be seen only by you. Learn more ›
×
You can save this tab as Personal to edit and correct it or add notes. All changes will be seen only by you. Learn more »
launch autoscroll
font size
0
reset
guitar tuner
backing track
0:00
0:00
edit
Autoscroll
slow
fast
+/-
esc
set tempo
stop
Author
Difficulty
BLOW AT HIGH DOUGH by THE TRAGICALLY HIP


                    
G|-----------9-----||--11-----11-----11-----9-----|--11-----11-----11-----9-----|
D|--------9-----9--||------9------9------9-----9--|------9------9------9-----9--|
A|-----------------||-----------------------------|-----------------------------|
E|-----------------||-----------------------------|-----------------------------|


G|--11-----11-----11-----9-----|--11-----11-----11-----9-----|
D|------9------9------9-----9--|------9------9------9-----9--|
A|-----------------------------|-----------------------------|
E|-----------------------------|-----------------------------|

      “They shot a movie once...”

G|-----11-----11-----11-----9-----|--11-----11-----11-----9-----|
D|---------9------9------9-----9--|------9------9------9-----9--|
A|--------------------------------|-----------------------------|
E|--------------------------------|-----------------------------|

       “Everybody was in it...”

G|-----9-----9-----9-----7-----|--9-----9-----9-----7-----|
D|--------7-----7-----7-----7--|-----7-----7-----7-----7--|
A|-----------------------------|--------------------------|
E|-----------------------------|--------------------------|

    “From miles around...”

G|--11-----11-----11-----9-----|--11-----11-----11-----9-----|
D|------9------9------9-----9--|------9------9------9-----9--|
A|-----------------------------|-----------------------------|
E|-----------------------------|-----------------------------|

   “But I can get behind anything,                                Yeah I can get...”

G|--11-----11-----11-----9-----|--11-----11-----11-----11-----|-----------|--------------|
D|------9------9------9-----9--|------9------9------9------0--|-----------|--------------|
A|-----------------------------|------------------------------|--0--------|-----------0--|
E|-----------------------------|------------------------------|-----------|--------------|

   “Anything..”

G|-----------------------|--------------------------|-----------------------|
D|-----------------------|--------------------------|-----------------------|
A|--2--2--0--2--0--2--0--|--2--2--0--2--2--0--2--0--|--2--2--0--2--0--2--0--|
E|-----------------------|--------------------------|-----------------------|



G|--------------------------|--------------------------|-----------------------|
D|--------------------------|--------------------------|-----------------------|
A|--2--2--0--2--2--0--2--0--|--2--2--0--2--2--0--2--0--|--2--2--0--2--0--2--0--|
E|--------------------------|--------------------------|-----------------------|

   “Make it last,           make it all last...”

G|--------------------------|--------------------------|
D|--------------------------|--------------------------|
A|--0--0--0--0--0--0--0--0--|--0--0--0--0--0--0--0--0--|
E|--------------------------|--------------------------|

   “Least til the supper bell rings..”

G|--------------------------|--------------------------|-----------------------|
D|--------------------------|--------------------------|-----------------------|
A|--2--2--0--2--2--0--2--0--|--2--2--0--2--2--0--2--0--|--2--2--0--2--0--2--0--|
E|--------------------------|--------------------------|-----------------------|

   “Sometimes the faster it gets...

G|--------------------|--------------------------|--------------------|
D|--2-----------------|--------------------0-----|--2-----------------|
A|--------------------|-----------------0-----0--|--------------------|
E|-----0--0--0--0--0--|--0--0--0--0--0-----------|-----0--0--0--0--0--|

  “But you                  gotta remember...  smarter it gets

G|--------------------------|--------------------|--------------------------|
D|--------------------0-----|--4-----------------|--------------------2-----|
A|-----------------0-----0--|--------------------|-----------------0-----0--|
E|--0--0--0--0--0-----------|-----2--2--2--2--2--|--2--2--2--2--2-----------|

 “further it’s gonna go, when you blough at high dough”

G|--------------------|--------------------------|-----------------------|
D|--4-----------------|--------------------0--0--|-----------------------|
A|--------------------|--------------------------|--2--2--0--2--0--2--0--|
E|-----2--2--2--2--2--|--2--2--2--2--2--0--------|-----------------------|

G|--------------------------|--------------------------|-----------------------|
D|--------------------------|--------------------------|-----------------------|
A|--2--2--0--2--2--0--2--0--|--2--2--0--2--2--0--2--0--|--2--2--0--2--0--2--0--|
E|--------------------------|--------------------------|-----------------------|

 “when you blow at high...       ..dough

G|----------------------9-----||--11-----11-----11-----9-----|
D|-------------------9-----9--||------9------9------9-----9--|
A|----------------------------||-----------------------------|
E|--2--2--2--2--0-------------||-----------------------------|

G|--11-----11-----11-----9-----|--11-----11-----11-----9-----|
D|------9------9------9-----9--|------9------9------9-----9--|
A|-----------------------------|-----------------------------|
E|-----------------------------|-----------------------------|
Suggest correction
Creating personal tab
Creating personal tab
You can edit any tab online and save it as your Personal.

You can edit, replace or remove any tab part or add personal notes – all changes will be seen only by you.

Personal tabs can be accessed anytime from any device, even offline.
Learn more »
comments
print report bad tab
guest
You may want to rate the tab now too:
select rating
Wanna post a correction for this tab? Suggest correction