Oops, an error
Loading. Please wait.

Blow At High Dough Tab

version 1
version 1

Whole song

Interactive

26,750 views 27 this week
1 commentread comment
1 2 3 4 5
x 4
add to favorites
launch autoscroll
font size
0
reset
how to read this tab
guitar tuner
backing track
0:00
0:00
×
Best way to learn
"Blow At High Dough"
Autoscroll
slow
fast
+/-
esc
set tempo
stop
[Verse]
e|----------|----------|----------|----------|----------|----------|
B|----------|----------|----------|----------|----------|----------|
G|----------|----------|----------|----------|----------|----------|
D|--2-4-4-4-|--2-4-4-4-|--2-4-4-4-|--2-4-4-4-|--2-4-4-4-|--2-4-4-4-|
A|-2-2-2-2--|-2-2-2-2--|-2-2-2-2--|-2-2-2-2--|-2-2-2-2--|-2-2-2-2--|
E|----------|----------|----------|----------|----------|----------|

   once  in my hometown       everybody was in it         for miles 
   some kinda Elvis thing     well I ain't no movie star  but I can
e|----------|----------|----------|----------|----------|----------|
B|----------|----------|----------|----------|----------|----------|
G|----------|----------|----------|----------|----------|----------|
D|--2-4-4-4-|--2-4-4-4-|--0-2-2-2-|--0-2-2-2-|--2-4-4-4-|--2-4-4-4-|
A|-2-2-2-2--|-2-2-2-2--|-2-0-0-0--|-2-0-0-0--|-2-2-2-2--|-2-2-2-2--|
E|----------|----------|----------|----------|----------|----------|

   around
   get behing anything   Yeah I can get behing anything  heh!
e|----------|----------|----------|----------|----------|----------|
B|----------|----------|----------|----------|----------|----------|
G|----------|----------|----------|----------|----------|----------|
D|--2-4-4-4-|--4-4-2-4-|-4-4-4-4--|----------|----------|----------|
A|-2-2-2-2--|-2-2-2-2--|-2-2-2-2--|----------|----------|----------|
E|----------|----------|----------|----------|----------|----------|

   Get it out            Get it all out        Yeah stretch that thing
e|----------|----------|----------|----------|----------|----------|
B|----------|----------|----------|----------|----------|----------|
G|----------|----------|----------|----------|----------|----------|
D|-4-4-2-4--|-2-4-2----|-4-4-2-4--|-2-4-2----|-4-4-2-4--|-2-4-2----|
A|-2-2-2-2--|-2-2-2----|-2-2-2-2--|-2-2-2----|-2-2-2-2--|-2-2-2----|
E|----------|----------|----------|----------|----------|----------|

   Make it last          make it last          At least till the ???
e|----------|----------|----------|----------|----------|----------|
B|----------|----------|----------|----------|----------|----------|
G|----------|----------|----------|----------|----------|----------|
D|-2-2-0-2--|-0-2-0----|-2-2-0-2--|-0-2-0----|-4-4-2-4--|-4-2-4----|
A|-0-0-0-0--|-0-0-0----|-0-0-0-0--|-0-0-0----|-2-2-2-2--|-2-2-2----|
E|----------|----------|----------|----------|----------|----------|


e|-x-|   You know the part where Gord is kinda talkin to himself
B|-3-|   "How do I explain this, how do I put it into words, 
G|-4-|   It's one thing or another but it's neither this nor that"
D|-2-|   Well this is the chord that is wailing away behind it.
A|-x-|   And if this ain't it then slide it up a fret or two
E|-x-|   Like I said, I don't have my guitar here but I'm pretty sure 
         that the shape of the chord is right.

Rod,
    I was just looking at what you sent me on Blow At High Dough and 
I don't understand what part it is.  Is it the beginning rhythm? I 
know the Intro and I think it goes like this:

e|--------|-----------|--------|--------|
B|--12----|---(12)----|--(12)--|--(12)--|            
G|--------|-----------|--------|--------|
D|--------|-----------|--------|--------|                             
A|--------|-----------|--------|--------|
E|--------|-----------|--------|--------|

This is the part where I think the base is playing just before the 
words start. Repeat this first part once more while the lyrics are 
beginning. 

(Next the second guitar comes in and plays something like this:)

          Everybody was..          For miles..            Out at..
e|-------|--------------|----------|---------|----------|-------| 
B|---2---|------(2)-----|---2/4----|--(4)----|-4---2/4--|--(4)--| 
G|-------|--------------|----------|---------|----------|-------|
D|-------|--------------|----------|---------|----------|-------|
A|-------|--------------|----------|---------|----------|-------|       
E|-------|--------------|----------|---------|----------|-------|

            Some kind..        Well I ain't no movie star..
e|----------|--------|--------|--------------------------|
B|--4--2/4--|--(4)---|---8/7--|--(7)----------9-------11-| 
G|----------|--------|--------|--------------------------|
D|----------|--------|--------|--------------------------|
A|----------|--------|--------|--------------------------|
E|----------|--------|--------|--------------------------|

  But I ..            YEA I CAN...
e|--(11)---|--------|----------|
B|---------|--------|----------|
G|---------|---2----|--(2)-----|
D|---------|---2----|--(2)-----|
A|---------|---0----|--(0)-----|
E|---------|--------|----------|



************************************

| x    Dead note
| (n)  Ghost note
| /    Slide up

************************************
Suggest correction
comments
print report bad tab
1 comment total.
+1 reply
grantml02 51 Feb 22, 2007 04:34 PM

E|-x-| You know the part where Gord is kinda talkin to himself
B|-3-| "How do I explain this, how do I put it into words,
G|-4-| It's one thing or another but it's neither this nor that"
D|-2-| Well this is the chord that is wailing away behind it.
A|-x-| And if this ain't it then slide it up a fret or two
E|-x-| Like I said, I don't have my guitar here but I'm pretty sure
that the shape of the chord is right.
From: CLINTON D
______________________________________________________________________

haha, the "one thing or another but neither this nor that" part is from "i'll believe in you (or i'll be leaving you tonight) not blow at high dough.

guest
You may want to rate the tab now too:
select rating
Wanna post a correction for this tab? Suggest correction