Oops, an error
Loading. Please wait.

Bobcaygeon bass

version 2
version 2

Whole song

199 views 1 this week
no commentswrite comment
1 2 3 4 5
3 more votes to show rating
add to favorites
×
Save as Personal and add changes to this tab that will be seen only by you. Learn more ›
×
You can save this tab as Personal to edit and correct it or add notes. All changes will be seen only by you. Learn more »
launch autoscroll
font size
0
reset
guitar tuner
edit
Autoscroll
slow
fast
+/-
esc
set tempo
stop
Author
[Intro]
G|---------------------------------|
D|-------17----17--------------17--|
A|-17-19----19-------17-17-19------|
E|---------------------------------|

[Verse]
G|--------------------------------------|--------------------------------------|
D|-----5---5-----5-5-5-7----------------|-----5---5-----5-5-5-7----------------|
A|-5-7---5---------------5-5---5-5-5-5--|-5-7---5---------------5-5---5-5-5-5--|
E|--------------------------------------|--------------------------------------|

G|--------------------------------------|--------------------------------------|
D|-----5---5-----5-5-5-7----------------|-----5---5-----5-5-5-7----------------|
A|-5-7---5---------------5-5---5-5-5-5--|-5-7---5---------------5-5---5-5-5-5--|
E|--------------------------------------|--------------------------------------|

G|--------------------------------------|--------------------------------------|
D|-----5---5-----5-5-5-7----------------|-----5---5-----5-5-5-7----------------|
A|-5-7---5---------------5-5---5-5-5-5--|-5-7---5---------------5-5---5-5-5-5--|
E|--------------------------------------|--------------------------------------|

[Pre-Chorus]
G|--------------------------------------------------------------------------|
D|--------------------------------------------------------------------------|
A|-2---------------3--------------------------------------------------------|
E|---------------------------------3---------------5------------------------|

[Chorus]
G|--------------------------------------------------------------------------|
D|--------------------------------------------------------------------------|
A|-----------------3-------------------------------5------------------------|
E|-0-------------------------------3----------------------------------------|

[Verse A]                                         [Verse B]
G|-----------------------|---------------------|-----------------------|----------------------|
D|-----5---5--5-5-----5--|-----5--5-5-------5--|-----5---5--5-5-----5--|-----5--9-9-7------5--|
A|-5-7---5--------5-7----|-5-7--------7-5-7----|-5-7---5--------5-7----|-5-7----------5-7-----|
E|-----------------------|---------------------|-----------------------|----------------------|

[Verse]                                    [Verse Variation]
G|--------------------------------------|-------------------------------------|
D|-----5---5-----5-5-5-7----------------|-----5---5-----5-5-5-7-------7/9/7---|
A|-5-7---5---------------5-5---5-5-5-5--|-5-7---5---------------5-5-----------|
E|--------------------------------------|-------------------------------------|

[Verse]                                    [Verse]
G|--------------------------------------|--------------------------------------|
D|-----5---5-----5-5-5-7----------------|-----5---5-----5-5-5-7----------------|
A|-5-7---5---------------5-5---5-5-5-5--|-5-7---5---------------5-5---5-5-5-5--|
E|--------------------------------------|--------------------------------------|

[Pre-Chorus]
G|--------------------------------------------------------------------------|
D|--------------------------------------------------------------------------|
A|-2---------------3--------------------------------------------------------|
E|---------------------------------3---------------5------------------------|

[Chorus]
G|--------------------------------------------------------------------------|
D|--------------------------------------------------------------------------|
A|-----------------3-------------------------------5------------------------|
E|-0-------------------------------3----------------------------------------|

G|--------------------------------------------------------------------------|
D|--------------------------------------------------------------------------|
A|-----------------3-------------------------------5------------------------|
E|-0-------------------------------3----------------------------------------|

G|--------------------------------------------------------------------------|
D|--------------------------------------------------------------------------|
A|-----------------3-------------------------------5------------------------|
E|-0-------------------------------3----------------------------------------|

[Verse]
G|--------------------------------------|--------------------------------------|
D|-----5---5-----5-5-5-7----------------|-----5---5-----5-5-5-7----------------|
A|-5-7---5---------------5-5---5-5-5-5--|-5-7---5---------------5-5---5-5-5-5--|
E|--------------------------------------|--------------------------------------|

G|--------------------------------------|--------------------------------------|
D|-----5---5-----5-5-5-7----------------|-----5---5-----5-5-5-7----------------|
A|-5-7---5---------------5-5---5-5-5-5--|-5-7---5---------------5-5---5-5-5-5--|
E|--------------------------------------|--------------------------------------|

G|--------------------------------------|--------------------------------------|
D|-----5---5-----5-5-5-7----------------|-----5---5-----5-5-5-7----------------|
A|-5-7---5---------------5-5---5-5-5-5--|-5-7---5---------------5-5---5-5-5-5--|
E|--------------------------------------|--------------------------------------|

G|--------------------------------------|--------------------------------------|
D|-----5---5-----5-5-5-7----------------|-----5---5-----5-5-5-7----------------|
A|-5-7---5---------------5-5---5-5-5-5--|-5-7---5---------------5-5---5-5-5-5--|
E|--------------------------------------|--------------------------------------|

[Pre-Chorus]
G|--------------------------------------------------------------------------|
D|--------------------------------------------------------------------------|
A|-2---------------3--------------------------------------------------------|
E|---------------------------------3---------------5------------------------|

[Chorus]
G|--------------------------------------------------------------------------|
D|--------------------------------------------------------------------------|
A|-----------------3-------------------------------5------------------------|
E|-0-------------------------------3----------------------------------------|

[Verse A]                                         [Verse B]
G|-----------------------|---------------------|-----------------------|----------------------|
D|-----5---5--5-5-----5--|-----5--5-5-------5--|-----5---5--5-5-----5--|-----5--9-9-7------5--|
A|-5-7---5--------5-7----|-5-7--------7-5-7----|-5-7---5--------5-7----|-5-7----------5-7-----|
E|-----------------------|---------------------|-----------------------|----------------------|

[Verse A]                                         [Verse B]
G|-----------------------|---------------------|-----------------------|----------------------|
D|-----5---5--5-5-----5--|-----5--5-5-------5--|-----5---5--5-5-----5--|-----5--9-9-7------5--|
A|-5-7---5--------5-7----|-5-7--------7-5-7----|-5-7---5--------5-7----|-5-7----------5-7-----|
E|-----------------------|---------------------|-----------------------|----------------------|

[Verse B]                                         [Verse B]
|-----------------------|----------------------|-----------------------|----------------------|
|-----5---5--5-5-----5--|-----5--9-9-7------5--|-----5---5--5-5-----5--|-----5--9-9-7------5--|
|-5-7---5--------5-7----|-5-7----------5-7-----|-5-7---5--------5-7----|-5-7----------5-7-----|
|-----------------------|----------------------|-----------------------|----------------------|

[Verse A]                                         [Verse B]
G|-----------------------|---------------------|-----------------------|----------------------|
D|-----5---5--5-5-----5--|-----5--5-5-------5--|-----5---5--5-5-----5--|-----5--9-9-7------5--|
A|-5-7---5--------5-7----|-5-7--------7-5-7----|-5-7---5--------5-7----|-5-7----------5-7-----|
E|-----------------------|---------------------|-----------------------|----------------------|

[Verse A]                                         [Verse B]
G|-----------------------|---------------------|-----------------------|----------------------|
D|-----5---5--5-5-----5--|-----5--5-5-------5--|-----5---5--5-5-----5--|-----5--9-9-7------5--|
A|-5-7---5--------5-7----|-5-7--------7-5-7----|-5-7---5--------5-7----|-5-7----------5-7-----|
E|-----------------------|---------------------|-----------------------|----------------------|

[Verse A]                                         [Verse B]
G|-----------------------|---------------------|-----------------------|----------------------|
D|-----5---5--5-5-----5--|-----5--5-5-------5--|-----5---5--5-5-----5--|-----5--9-9-7------5--|
A|-5-7---5--------5-7----|-5-7--------7-5-7----|-5-7---5--------5-7----|-5-7----------5-7-----|
E|-----------------------|---------------------|-----------------------|----------------------|

[Verse A]                                         [Outro]
G|-----------------------|---------------------|-------|
D|-----5---5--5-5-----5--|-----5--5-5-------5--|-------|
A|-5-7---5--------5-7----|-5-7--------7-5-7----|-7-----|
E|-----------------------|---------------------|---0-0-|



************************************

| /  Slide up

************************************

            
            
Suggest correction
Creating personal tab
Creating personal tab
You can edit any tab online and save it as your Personal.

You can edit, replace or remove any tab part or add personal notes – all changes will be seen only by you.

Personal tabs can be accessed anytime from any device, even offline.
Learn more »
Give kudos to tab author, rate the tab!
1 2 3 4 5
comments
print report bad tab
guest
You may want to rate the tab now too:
select rating
Wanna post a correction for this tab? Suggest correction