Oops, an error
Loading. Please wait.

Courage Bass Tab

version 2
version 2

Whole song

2,667 views 18 this week
no commentswrite comment
1 2 3 4 5
excellent!
x 1
add to favorites
launch autoscroll
font size
0
reset
guitar tuner
Tab Pro tools
  • play this tab
  • loop segment
  • change instrument
  • show fretboard
  • metronome
Autoscroll
slow
fast
+/-
esc
set tempo
stop
Intro x4 (0:00)
G-------------------------|
D--------------7-5---5-4--|
A-------------------------|
E-0-3-5-5555-5-----3------|

Verse fill (0:14)
G----------------------------------------------------------------------------|
D----------------------------------------------------------------------------|
A---------------------------------333333333333--------------7-5---5-4--------|
E-0-3-5-5555555555555555555555555--------------555555555--5-----3-----0-3-5--|

Verse (0:29)
G----------------------------------------------------|
D----------------------------------------------------|
A--------------333333333333--------------5555555555--|
E-555555555555--------------333333333333-------------|

Chorus (0:43)
G-------------------------------|
D----7--5-4------7--------------|
A-5---------5-55----------------|
E-------------------5555555555--|

(0:50)
G-----------------------------|
D-----------------------------|
A-----------------------------|
E-0-3-5-555555555555---0-3-5--|

Verse x2 (0:54)
Chorus x3 (1:23)

Chorus end (1:44)
G------------------------|
D----7--5-4------7-------|
A-5---------5-55---------|
E-------------------5~~--|

Bridge (1:50)
G--------------------------------------------------------------------|
D---------------------------------------------------7-5---5-4--------|
A--------------------------3--3-3-33---------------------------------|
E-0-3-5----0-3-5--5-5--5-5-----------3-33--33--5--5-----3-----0-3-5--|

G-------------------------------------------|
D-------------------------------------------|
A-------------3--3-3-33----------5--5-5-55--|
E-5--5-5--5-5-----------3-33--33------------|

G------------------------------------------------------------------------|
D------------------------------------------------------------------------|
A------------------3-333-333-333-33------------------5-555-555-55-55-55--|
E-5-555-555-555-55------------------3-333-333-333-33---------------------|

Chorus x4 (2:38)
Verse x3 (3:03)

(3:56)
G-----------------|
D-----------------|
A-----------------| (fade out)
E-0-3-5----0-3-5--|
comments
We did not receive enough feedback on this tab! Please rate:
print report bad tab
1 2 3 4 5
I want to post or [tab]
guest
You may want to rate the tab now too:
select rating
Please do not post tabs as comments. Select "correction" instead!