Oops, an error
Loading. Please wait.

Fiddlers Green tab

version 2
version 2

Whole song

70,194 views 132 this week
4 commentsread comments
1 2 3 4 5
x 26
add to favorites
×
Save as Personal and add changes to this tab that will be seen only by you. Learn more ›
×
You can save this tab as Personal to edit and correct it or add notes. All changes will be seen only by you. Learn more »
launch autoscroll
font size
0
reset
how to read this tab
guitar tuner
edit
Autoscroll
slow
fast
+/-
esc
set tempo
stop
Author
(Pick-up)            E                 E                          A
[Intro] 
    3  &  4  &   1 & 2 & 3 & 4 &   1  &  2  &  3  &  4  &     1  &  2  &  3  &  4  &
e|------------------|-----------------|--------------------------|-----------------------|
B|------------------|-----------------|--------------------------|-2---------------------|
G|------4h6-4—------|-1---------------|-1----------4h6-4---------|-2---------------------|
D|-------------6/4-2|-2-------------2-|-2----------------6/4-2h4-|-2--------------------2|
A|------------------|-2----------2h4--|-2------------------------|------------------2h4--|
E|------------------------------------|--------------------------|-----------------------|

   A                          E                        D
   1  &  2  &  3  &  4   &    1  &  2  &  3  &  4  &   1  &  2  &  3  &  4  &
e|--------------------------|------------------------|-2----------------------|
B|-2------------------------|------------------------|-3----------------------|
G|-2--------------6--4------|-1----------------------|-2--------------2-------|
D|-2-----------4------h6-4--|-2--------------------2-|------------2h4---4p2-0-|
A|--------------------------|-2----------------2h4---|------------------------|
E|--------------------------|------------------------|------------------------|

   E
   1  &  2  &  3  &  4  &    1
e|-------------------------|----|  (First verse begins in the same bar as the last note of
B|-------------------------|----|  intro phrase, starting on beat 3)
G|-1-----------------------|----|
D|-2--------------2--2-----|----|
A|-2--------2-2h4------4p2-|----|
E|-------------------------|-0--|

[Verse 1]
      September seventeen                    for/a/girl/I/know/it's mothers day
                      E                 E                          A
   1&2 & 3  &  4  &   1 & 2 & 3 & 4 &   1  &  2  &  3  &  4  &     1  &  2  &  3  &  4  &
e|------------------|-----------------|--------------------------|--------------------------|
B|------------------|-----------------|--------------------------|-2------------------------|
G|------4h6-4—------|-1---------------|-1----------4h6-4---------|-2------------------------|
D|------------6/4-2-|-2-------------2-|-2----------------6/4-2h4-|-2---------------------2--|
A|------------------|-2----------2h4--|-2------------------------|-------------------2h4----|
E|-0----------------|-----------------|--------------------------|--------------------------|

             her son is gonna leave                               and that's where he will
   A                          E                        E
   1  &  2  &  3  &  4   &    1  &  2  &  3  &  4  &   1  &  2  &  3  &  4  &
e|--------------------------|------------------------|-------------------------|
B|-2------------------------|------------------------|-------------------------|
G|-2--------------6--4------|-1----------------------|-1-----------------------|
D|-2-----------4------h6-4--|-2--------------------2-|-2-----------------6—4/2-|
A|--------------------------|-2----------------2h4---|-2-----------------------|
E|--------------------------|------------------------|-------------------------|
  stay                                wind on a weathervane             tearing/blue/eyes

   B                                                 E
   1  &  2  &  3  &  4  &   1  &  2  &  3  &  4  &   1&2&3&4&   1 & 2 & 3  &  4  &
e|------------------------|------------------------|----------|---------------------|
B|------------------------|----------------5--5----|----------|---------------------|
G|-4----------------6p4---|-4-----4-----4-------6p4|-1--------|-1------4h6-4--------|
D|-4--------------------6-|------------------------|-2--------|-2------------6/4-2h4|
A|-2----------------------|------------------------|-2--------|-2-------------------|
E|------------------------|------------------------|----------|---------------------|

sailor mean                 as Falstaff sings a sorrowful refrain      for a boy in
   A                 A                       E                        D
   1 & 2 & 3 & 4 &   1  & 2  &  3  &  4  &   1  &  2  &  3  &  4  &   1 & 2 & 3 &  4  &
e|-----------------|-----------------------|------------------------|-2-----------------|
B|-2---------------|-2---------------------|------------------------|-3-----------------|
G|-2-------------2-|-2---------4h6-4-------|-1----------------------|-2------2--2-------|
D|-2----------2h4--|-2---------------6/4-2-|-2--------------------2-|-------4--4—-4p2-0-|
A|-----------------|-----------------------|-2----------------2h4---|-------------------|
E|-----------------------------------------|------------------------|-------------------|

Fiddler's Green
   1  &  2  &  3  &  4  &   1
e|------------------------|----|
B|------------------------|----|
G|-1----------------------|----|
D|-2--------------------2-|----|
A|-2--------------2-2h4---|----|
E|------------------------|-0--|

[Verse 2]
His tiny knotted heart,   well I guess it never worked too good
the timber tore apart,  and the water gorged the wood
you can hear her whispered prayer, for men at masts that always lean
the same wind that moves her hair, moves her boy through Fiddler's Green

(Bar b4 Bridge)
   1  &  2  &  3  &  4  &
e|------------------------|
B|------------------------|
G|-------1-----1----------|
D|-------2-----2--------2-|
A|-------2-----2----2h4---|
E|-0----------------------|

[Bridge]
  A         B                          A         B
Oh,         nothing's changed anyway        Oh,  nothing's changed anyway
  1 2 3 4   1       2       3      4   1 2 3 4
e|---------|--------------------------|---------|-------------------------|
B|-2-------|--------------------------|-2-------|-------------------------|
G|-2-------|-4------------------------|-2-------|-4-----------------------|
D|-2-------|-4------------------------|-2-------|-4-----------------------|
A|---------|-2------------------------|---------|-2-----------------------|
E|---------|--------------------------|---------|-------------------------|

  A         B               E                      (I think)
       Oh,  anytime    today                        HM
  1 2 3 4   1   2   3   4   1  &  2  &  3  &  4  &   1
e|---------|---------------|------------------------|-4--|  Goes back into verse form
B|-2-------|---------------|------------------------|-4--|
G|-2-------|-4-------------|-1----------------------|-4--|
D|-2-------|-4-------------|-2--------------2-------|-4--|
A|---------|-2-------------|-2--------2-2h4---------|-4--|
E|---------|---------------|------------------------|-4--|

[Verse 3]
He doesn't know a soul, and there's nowhere that he's really been
But he won't travel long alone, no not in Fiddler's Green
Balloons all filled with rain, as children's eyes turn sleepy mean
As Falstaff sings a sorrowful refrain, for a boy in Fiddler's Green

[Outro]
There are some picking parts but they are hard to make out. Alternates b/w D & E chords for 8 bars 
starting right after the last bar of the 3rd verse. Song ends on E

 E       D
 Green
e|------|--2--|
B|------|--3--|
G|--1---|--2--|
D|--2---|-----|
A|--2---|-----|
E|------|-----|


************************************

| h  Hammer-on
| /  Slide up
| p  Pull-off

************************************
Suggest correction
Creating personal tab
Creating personal tab
You can edit any tab online and save it as your Personal.

You can edit, replace or remove any tab part or add personal notes – all changes will be seen only by you.

Personal tabs can be accessed anytime from any device, even offline.
Learn more »
comments
print report bad tab
4 comments total. Showing first comments.
+2 reply
cerveza 36 Jun 17, 2007 02:34 PM

good tab, and the ?'s you have are D chords

+1 reply
PotatomanDave 10 Jan 19, 2009 11:11 AM

great tab, my fav hip song.. thanks :D

0 reply
zandercaster 31 Apr 22, 2009 12:21 PM

nice

guest
You may want to rate the tab now too:
select rating
Wanna post a correction for this tab? Suggest correction