Oops, an error
Loading. Please wait.

Fight Tab

2,268 views 6 this week
no commentswrite comment
1 2 3 4 5
accurate
x 1
add to favorites
launch autoscroll
font size
0
reset
how to read this tab
guitar tuner
Tab Pro tools
  • play this tab
  • loop segment
  • change instrument
  • show fretboard
  • metronome
Autoscroll
slow
fast
+/-
esc
set tempo
stop
 
 Fight - The Tragically Hip
 From the album : Road Apples
 
 Transcribed by Gord Murdoch
 jm94bu@badger.ac.Brocku.ca

 The song alternates between Fig. 1 and 2 with different fills added  
 in fig. 1 each time around. Individual notes of the A6 chord are played
 after the inital chord is struck. Listen to the disk for the exact 
 notes played.

   Fig.1                        Fig. 2
   
 E-|----------------------------|----------------------------|
 B-|----------------------------|----------------------------|
 G-|--6\--x-x-----4-x-x-3-x-x---|--6\--x-x-----4-x-x-6-x-x---|
 D-|--6\--x-x-4h6-4-x-x-4-x-x---|--6\--x-x-4h6-4-x-x-4-x-x---|
 A-|--4\--x-x-------------------|--4\--x-x-------------------|
 E-|----------------------------|----------------------------|

   Fig. 3            
               |-Guitar 2 fill--|
 E-|----------------------------|
 B-|----------------------------|
 G-|--6\--x-x-------------------|
 D-|--6\--x-x-------------------|
 A-|--4\--x-x-------------------|
 E-|----------------------------|

   Fig. 4   
     
      A6                                                   
 E-|----------------------|
 B-|--5-------------------|
 G-|--6-------------------|
 D-|--4-------------------|
 A-|----------------------|
 E-|----------------------|


 
 Riff 1 : Fig. 1 + Fig. 2 
 Riff 2 : Fig. 1 + Fig. 3
 
 Intro: Riff 1 + Riff 2 (w/ fill 1)
        Riff 1 + Riff 2 (w/ fill 2)

 
 We wakeup different, rifle through our dreams      (Riff 1)
 Another placid day, ripples at the seams           (Riff 2 w/ fill 3)

 Do you think I bow out cause I think you're right? (Fig. 4)
 Or cause I don't wanna fight?                      (Fig. 4)
                                                    (Riff 2 w/ fill 4)
 Repeat

 So tangle-minded then so becalmed                  (Riff 1)
 It's all so subway-grim and then it's gone         (Riff 2 w/ fill 3)

 Do you think I bow out cause I think you're right? (Fig. 4)
 Or cause I don't wanna fight?                      (Fig. 4)
                                                    (Riff 2 w/ fill 5)
 Repeat
 Solo

 We get so weary taking fish off hooks              (Riff 1)
 It's not as effortless as it may look              (Riff 2 w/ fill 6)

 Do you think I bow out cause I think you're right? (Fig. 4)
 Or cause I don't wanna fight?                      (Fig. 4)
                                                    (Riff 2 w/ fill 5)
 Repeat
 Solo 2

 We lay down seething, smell our pillows burn       (Riff 1)
 And drift off to the place where you'd think we'd learn   (Riff 2/ fill 7)

 Do you think I bow out cause I think you're right?  (Fig. 4)
 Or cause I don't wanna fight?                       (Fig. 4)
                                                     (Riff 2 w/ fill 5)
 Repeat
 Solo 3
 
 I said, "I give."
 ---------------------------------------------------------------------------
 
 
 Lead fills over the verses:  
   
   Fill 1
 E-|----------------------------|
 B-|--9----9--------------------|
 G-|--9h11-9------9----9--------|
 D-|----------11--9h11-9--------|
 A-|----------------------11\---|
 E-|----------------------------|
   
   Fill 2
 E-|----------------------------|
 B-|----------------------------|
 G-|--9----9--------------------|
 D-|--9h11-9-----9----9---------|
 A-|---------11--9h11-9---------| 
 E-|--------------------11\-----|

   Fill 3
 E-|----------------------------|
 B-|----------------------------|
 G-|----------------------------|
 D-|--9h11-11-11-9--------------|
 A-|---------------11-----------|
 E-|----------------------------|
  
   Fill 4
 E-|----------------------------|
 B-|----------------------------|
 G-|----------------------------|
 D-|--9h11-9--------------------|
 A-|---------11--9h11-----------|
 E-|------------------11--------|

   Fill 5
 E-|----------------------------|
 B-|--9-9\----------------------|
 G-|--9-9\----------9-----------|
 D-|-----------9-11---11\-------|
 A-|-------/11------------------|
 E-|----------------------------|
   
   Fill 6
 E-|----------------------------|
 B-|----------------------------|
 G-|-------11\9-----------------|
 D-|----------------------------|
 A-|--9/11----------------------|
 E-|----------------------------|

   Fill 7
 E-|----------------------------|
 B-|--9\------------------------|
 G-|--9\------------------------|
 D-|----------------------------|
 A-|----------------------------|
 E-|----------------------------|
========
Gord Murdoch                         "You see...I don't know Neil, I don't   
jm94bu@badger.ac.BrockU.CA            know Neil."
Brock University                                
St. Catharines, Ontario               The Tragically Hip
========
comments
We did not receive enough feedback on this tab! Please rate:
print report bad tab
1 2 3 4 5
I want to post or [tab]
guest
You may want to rate the tab now too:
select rating
Please do not post tabs as comments. Select "correction" instead!