Oops, an error
Loading. Please wait.

Ill Believe In You Tab

2,651 views 6 this week
no commentswrite comment
1 2 3 4 5
excellent!
x 2
add to favorites
launch autoscroll
font size
0
reset
how to read this tab
guitar tuner
Tab Pro tools
  • play this tab
  • loop segment
  • change instrument
  • show fretboard
  • metronome
Autoscroll
slow
fast
+/-
esc
set tempo
stop
"I'LL BELIEVE IN YOU" - WRITTEN AND PERFORMED BY THE TRAGICALLY HIP
                        FROM THE ALBUM "UP TO HERE"

INTRO/CHORUS:

E-----------------------------------------------------------------
B-----------------------------------------------------------------                
G------2-----2-2-2-------2-2-------2-2-------2-2-------------
D------2-----2-2-2-------2-2-------2-2-------2-2-------------
A------0-----0-0-0----3p0-0----3p0-0----3p0-0-------------
E---3b-----------------------------------------------------------


E----------------------------------------------------------
B-----------------------------------3---------------------
G------2-----2-2-2-------2-2-----2---------------------
D------2-----2-2-2-------2-2-----0---------------------
A------0-----0-0-0----3p0-0---------------------------
E---3b---------------------------------------------------

VERSES 1&2 (AND PART OF 3):
                                                                             *
E-------------------------------------------------------------
B-------------------------------------------------------------
G---2-----------------------------------------------------2--
D---2--------------------------------------5-7-----------2--
A---0---0-(pedal A ? times)---5-6-7-------------3b--0-- 
E-------------------------------------------------------------
*repeat bar

E-----3---3--------------------------------------3--3-----2-
B-----3---3--------------------------------------3--3-----3-
G-----0---0--------------------------------------0--0-----2-
D-----0---0--------------------------------------0--0-----0-
A-----2---2------3b0---3b0---3b0-3b0-------2--2-------
E-----3---3--------------------------------------3--3-------

BRIDGE:

E7 (listen to the rhythm)

E---------X-----
B---------X-----
G---------7-----
D---------6-----
A---------7-----
E---------X-----

SOLO (CHORDS):

A (played ? times)  C (third fret A-string; bend and pull-off)

A (played ? times)  D

The outro is similar to the intro/chorus.  Just try to get the feel
of it.  This is an approximation, since the song has two guitars
and has a one-take quality to it.  The solo is most likely A
Pentatonic or a variation of it.  Very easy to play.  Have fun. 
P.S. for all the other Hip transcribers, I've seen a Hip guitar tab
book in store.  It's very accurate.  Don't pay $40 bucks for it,
though; stand in the store and memorize the parts you don't know.
--=====================_826419389==_--
comments
We did not receive enough feedback on this tab! Please rate:
print report bad tab
1 2 3 4 5
I want to post or [tab]
guest
You may want to rate the tab now too:
select rating
Please do not post tabs as comments. Select "correction" instead!