Oops, an error
Loading. Please wait.

In View Tab

version 1
version 1

Intro

Whole song

1,653 views 1 this week
1 commentread comment
1 2 3 4 5
please rate
add to favorites
launch autoscroll
font size
0
reset
how to read this tab
guitar tuner
Tab Pro tools
  • play this tab
  • loop segment
  • change instrument
  • show fretboard
  • metronome
×
Best way to learn
"In View"
Autoscroll
slow
fast
+/-
esc
set tempo
stop
Contributor
Standard Tuning

Here's the main riff... I'll figure the rest out when I have time...

e|--------------------------|
B|--9--7--------------------|
G|--------8--6-----6--8-----|
D|--------------9--------9--|
A|--------------------------|
E|--------------------------|

That's it for now, comments/concerns zango_19@hotmail.com

Peace, 
Dan
comments
We did not receive enough feedback on this tab! Please rate:
print report bad tab
1 2 3 4 5
1 comment total.
+1 reply
TrentonD wrote on October 23 2006, 05:58 pm

You forgot to add one 6 on the G string. Should be like this:
e|----------------------------|
B|--9--7----------------------|
G|--------8--6-----6--8--6----|
D|--------------9-----------9-|
A|----------------------------|
E|----------------------------|

I want to post or [tab]
guest
You may want to rate the tab now too:
select rating
Please do not post tabs as comments. Select "correction" instead!