Oops, an error
Loading. Please wait.

Locked In The Trunk Tab

10,978 views 6 this week
4 commentsread comments
1 2 3 4 5
x 4
add to favorites
launch autoscroll
font size
0
reset
how to read this tab
guitar tuner
×
Best way to learn
"Locked In The Trunk"
Autoscroll
slow
fast
+/-
esc
set tempo
stop
#----------------------------------PLEASE NOTE---------------------------------#
#This file is the author's own work and represents their interpretation of the #
#song. You may only use this file for private study, scholarship, or research. #
#------------------------------------------------------------------------------##
From: u9206837@muss.cis.McMaster.CA (Z.T. Harrington)
Subject: TAB: Locked in the trunk.. HIP

Locked in the trunk of a car- the hip
I was shown this by my friend Neil Emburg he figured it out.
BTW this is from memory.
begining starts with two guitars one plays B and E in the background
(bass the same).
The other plays the main bit. I usually play this by myself so i play the
bass line on the bottom two strings at such:
i start with this chord ?
e|--2--------------------------------|
b|--3--------------------------------|
g|--2--------------------------------|
d|--2--------------------------------|
a|--2--------------------------------|
e|-----------------------------------|
i play this a few times ( if you have another guitarist he can play B and
E power chords with the bass line), let the bass notes ring.

e|--------------------------------------|
b|---5-3-5-------------5-3-5------------|
g|---------2-4-2-4-2---------2-4-2-4-2--|
d|--------------------------------------|
a|-2------------------------------------|
e|-------------------0------------------|
the n for the main bit i play

e|--------------------------------------------------|
b|--------------------------------------------------|
g|-4---9-7-4--4-4-4-4--4-4--9-7---------------------|
d|-4---9-7-4--4-4-4-4--4-4--9-7---------------------|
a|-2---7-5-2--2-0-2-0--2-2--7-5---------------------|
e|--------------------------------------------------|

for the break .."evvvvrrry daaaay i'm dumping the bodys.."
play a D barr chord tat the 5th frett then a E barr chord at the 7th

listen to the song a few times to get the rythm right these should be the
chords if not the right rythm i can't seem to find my copy of the tape.
zach.
Suggest correction
comments
print report bad tab
4 comments total. Showing first comments.
+1 reply
anynamehere 71 Oct 07, 2004 08:00 PM

good tab but wouldn't it be much eaiser to play
e-----0----0--------------
B--------3------0---0-----
G-------------2---2----2--
D-------------------------
A--2----------------------
E-------------------------

0 reply
mandrews905 173 Dec 24, 2007 03:29 PM

much easier

0 reply
Publicover 10 Sep 16, 2008 07:13 AM

Great Tab
And yes anynamehere thats a much better way
Thnx 5 stars

guest
You may want to rate the tab now too:
select rating
Wanna post a correction for this tab? Suggest correction