Oops, an error
Loading. Please wait.

Long Time Running tab

version 1
version 1

Whole song

Interactive

24,653 views 33 this week
no commentswrite comment
1 2 3 4 5
x 13
add to favorites
×
Save as Personal and add changes to this tab that will be seen only by you. Learn more ›
×
You can save this tab as Personal to edit and correct it or add notes. All changes will be seen only by you. Learn more »
launch autoscroll
font size
0
reset
how to read this tab
guitar tuner
edit
Autoscroll
slow
fast
+/-
esc
set tempo
stop
Author
Difficulty
intermediate
[Chords]
A     - X02220
F#m   - 244222
D     - XX0232
Asus2 - X02200
E     - 022100
Dsus2 - XX0230

[Riff A]
e|--------------------------------0-----------0-----|
B|-----------0------------------3---3-------0---0---|
G|-----2----------------------2-------0---1-------0-|
D|---2-----2-------4-----2--0-----------------------|
A|-0-------------4-----2----------------------------|
E|-------4-----2-----0------------------0-----------|

[Riff B]
e|-------0-----------0------------0-----------0-----|
B|-----0---0-------0---0--------3---3-------3---3---|
G|---1-------1---1-------0----2-------2---2-------0-|
D|--------------------------0-----------0-----------|
A|--------------------------------------------------|
E|-0-----------0------------------------------------|

[Intro] 
[Riff A]
e|--------------------------------0-----------0-----|
B|-----------0------------------3---3-------0---0---|
G|-----2----------------------2-------0---1-------0-|
D|---2-----2-------4-----2--0-----------------------|
A|-0-------------4-----2----------------------------|
E|-------4-----2-----0------------------0-----------|

[Verse]
A
Does your mother tell you things?
F#m
Long, long when I'm gone?
A
Who you talking to?
F#m
Is she telling you I'm the one?

[Riff B]
e|-------0-----------0------------0-----------0-----|
B|-----0---0-------0---0--------3---3-------3---3---|
G|---1-------1---1-------0----2-------2---2-------0-|
D|--------------------------0-----------0-----------|
A|--------------------------------------------------|
E|-0-----------0------------------------------------|

It's a grave mistake and I'm wide awake

[Instrumental]
[Riff A]
e|--------------------------------0-----------0-----|
B|-----------0------------------3---3-------0---0---|
G|-----2----------------------2-------0---1-------0-|
D|---2-----2-------4-----2--0-----------------------|
A|-0-------------4-----2----------------------------|
E|-------4-----2-----0------------------0-----------|

A
Drive-in's rained out
F#m
Weatherman wet-fingers the sky
A
He pokes it out, he pulls it in
F#m
He don't know why

[Riff B]
e|-------0-----------0------------0-----------0-----|
B|-----0---0-------0---0--------3---3-------3---3---|
G|---1-------1---1-------0----2-------2---2-------0-|
D|--------------------------0-----------0-----------|
A|--------------------------------------------------|
E|-0-----------0------------------------------------|

It's the same mistake

[Riff A]
e|--------------------------------0-----------0-----|
B|-----------0------------------3---3-------0---0---|
G|-----2----------------------2-------0---1-------0-|
D|---2-----2-------4-----2--0-----------------------|
A|-0-------------4-----2----------------------------|
E|-------4-----2-----0------------------0-----------|

It's been a long time running

[Riff A]
e|--------------------------------0-----------0-----|
B|-----------0------------------3---3-------0---0---|
G|-----2----------------------2-------0---1-------0-|
D|---2-----2-------4-----2--0-----------------------|
A|-0-------------4-----2----------------------------|
E|-------4-----2-----0------------------0-----------|

It's been a long time coming

It's well worth the wait

[Solo]
(over A F#m)

A
Don't go anywhere
F#m
Just on trips
A
We haven't seen a thing
F#m
Still don't know where it is

[Riff B]
e|-------0-----------0------------0-----------0-----|
B|-----0---0-------0---0--------3---3-------3---3---|
G|---1-------1---1-------0----2-------2---2-------0-|
D|--------------------------0-----------0-----------|
A|--------------------------------------------------|
E|-0-----------0------------------------------------|

It's the same mistake

[Riff A]
e|--------------------------------0-----------0-----|
B|-----------0------------------3---3-------0---0---|
G|-----2----------------------2-------0---1-------0-|
D|---2-----2-------4-----2--0-----------------------|
A|-0-------------4-----2----------------------------|
E|-------4-----2-----0------------------0-----------|

It's been a long time running

[Riff A]
e|--------------------------------0-----------0-----|
B|-----------0------------------3---3-------0---0---|
G|-----2----------------------2-------0---1-------0-|
D|---2-----2-------4-----2--0-----------------------|
A|-0-------------4-----2----------------------------|
E|-------4-----2-----0------------------0-----------|

It's been a long time coming

      D
Well, well it's the same mistake

A       Asus2 A    D
Dead to rights and wide awake
            A        Asus2   A
Drop a caribou, I'll tell on you,
     D                               F#m  E  Dsus2
I'll tell on you.  I'll tell on you.

A
You've got a boat-load o'nerve
F#m
But I would say you've been told
A
You work me against my friends
F#m
And you'll get left out in the cold

[Riff B]
e|-------0-----------0------------0-----------0-----|
B|-----0---0-------0---0--------3---3-------3---3---|
G|---1-------1---1-------0----2-------2---2-------0-|
D|--------------------------0-----------0-----------|
A|--------------------------------------------------|
E|-0-----------0------------------------------------|

It's the same mistake

[Riff A]
e|--------------------------------0-----------0-----|
B|-----------0------------------3---3-------0---0---|
G|-----2----------------------2-------0---1-------0-|
D|---2-----2-------4-----2--0-----------------------|
A|-0-------------4-----2----------------------------|
E|-------4-----2-----0------------------0-----------|

It's been a long time running

[Riff A]
e|--------------------------------0-----------0-----|
B|-----------0------------------3---3-------0---0---|
G|-----2----------------------2-------0---1-------0-|
D|---2-----2-------4-----2--0-----------------------|
A|-0-------------4-----2----------------------------|
E|-------4-----2-----0------------------0-----------|

It's been a long time coming

[Riff A]
e|--------------------------------0-----------0-----|
B|-----------0------------------3---3-------0---0---|
G|-----2----------------------2-------0---1-------0-|
D|---2-----2-------4-----2--0-----------------------|
A|-0-------------4-----2----------------------------|
E|-------4-----2-----0------------------0-----------|

It's been a long, long, long time running

[Riff A]
e|--------------------------------0-----------0-----|
B|-----------0------------------3---3-------0---0---|
G|-----2----------------------2-------0---1-------0-|
D|---2-----2-------4-----2--0-----------------------|
A|-0-------------4-----2----------------------------|
E|-------4-----2-----0------------------0-----------|
 
                       A
It's well worth the wait, it's well worth the wait
Suggest correction
Creating personal tab
Creating personal tab
You can edit any tab online and save it as your Personal.

You can edit, replace or remove any tab part or add personal notes – all changes will be seen only by you.

Personal tabs can be accessed anytime from any device, even offline.
Learn more »
comments
print report bad tab
guest
You may want to rate the tab now too:
select rating
Wanna post a correction for this tab? Suggest correction