Oops, an error
Loading. Please wait.

Opiated tab

2,139 views 9 this week
no commentswrite comment
1 2 3 4 5
x 3
add to favorites
×
Save as Personal and add changes to this tab that will be seen only by you. Learn more ›
×
You can save this tab as Personal to edit and correct it or add notes. All changes will be seen only by you. Learn more »
launch autoscroll
font size
0
reset
how to read this tab
guitar tuner
edit
Autoscroll
slow
fast
+/-
esc
set tempo
stop
Author
Difficulty
#----------------------------------PLEASE NOTE---------------------------------#
#This file is the author's own work and represents their interpretation of the #
#song. You may only use this file for private study, scholarship, or research. #
#------------------------------------------------------------------------------##
Opiated by The Tragically Hip

Contact me at:
sfissel@shaw.ca

Lead Guitar
-----------

Intro:
|-3---3-2---2-0-0---0-0---0-0--|
|-3---3-3---3-0-0---0-0---0-0--|
|-0---0-2---2-0-0---x-0---0-0--|
|-0---0-0---0-0-2---x-2---2-2--| x3
|-2---2---------2---x-2---2-2--|
|-3---3---------0-----0---0-0--|

|-0---0-2---2-2--0--------0---------0-|
|-1---1-3---3-3--0--------0---------3-|
|-0---0-2---2-2--0--------0---------0-|
|-2---2-0---0-0--2--------2-----------|
|-3---3----------2--------2-----------|
|----------------0--------0-----------|

Verse 1:
|-0------------------------------------------0-|
|-0----0---------------0------3-----3------0---|
|-0-----------0-0----0------0-----0------------|
|----0----4-4-----2-------5-----4-----/2-2--2--|
|----------------------------------------------|
|----------------------------------------------|

|-0------------------------------------------0-|
|-0--------------------------3---3-3-----0-----|
|-0--0----0-0-0-0-0-0-0----0---0-0-0-----------|
|-2----2--------5-5-5-5--5-----4-----2---------|
|-2----------------------------------2---------|
|-0------------------------------------0---0---|

|---------------------------------------------0|
|------0-----0-----0-----0-----3----3-----0----|
|----0-----0-----0-----0-----0----0------------|
|-2-----4-----5-----7------5----4-----2--------|
|----------------------------------------------|
|---------------------------------------0---0--|

|--------------------------------------------0-|
|-----0-----0-----0-----0------3----3-----0----|
|---0-----0-----0-----0------0----0------------|
|-2-----4-----5-----0------5----4-----2-2--2---|
|-------------------------------------2--------|
|----------------------------------------------|

Chorus:
|-3---3----------0-------0----0-0-|
|-3---3-3---3-3--0----x--0----0-0-|
|-0---0-2---2-2--0----x--0----0-0-|
|-0---0-0---0-0--2----x--2----2-2-| x3
|-2---2-0---0-0--2----x--2--------|
|-3---3-2---2-2--0-------0--------|

|-0---0-2---2-2--0--------0---------0-|
|-1---1-3---3-3--0--------0---------3-|
|-0---0-2---2-2--0--------0---------0-|
|-2---2-0---0-0--2--------2-----------|
|-3---3----------2--------2-----------|
|----------------0--------0-----------|

Verse:
|--------------------------------------------0-|
|-----0-----0-----0-----0------3----3-----0----|
|---0-----0-----0-----0------0----0------------|
|-2-----4-----5-----0------5----4-----2-2--2---| x 3
|-------------------------------------2--------|
|----------------------------------------------|

|---------------------------------------------0|
|------0-----0-----0-----0-----3----3-----0----|
|----0-----0-----0-----0-----0----0------------|
|-2-----4-----5-----7------5----4-----2--------|
|----------------------------------------------|
|---------------------------------------0---0--|

Chorus

Solo:
|-----------------------------------------------------------------|
|-----0-----0-----0-----0-----------------------------------------|
|---0-----0-----0-----0--0-------------------------------0-0-0-0--|
|-2-----4-----5-----7-----4-2-4-2-0-0--5\---0-2--2-2-0-2---------2|
|-----------------------------------------------------------------|
|-----------------------------------------------------------------|

|-------------------------------------------------------------|
|---------------------------------------------------3-5-3-0-3-|
|-0-0--4-2-0-2-0---0-----3--2-0----0--4-4-4-4-2-0--/4---4---4-|
|-0-2------------2---2---3--2-0--2----0-0-0-0-0-0---0---0-----|
|-------------------------------------------------------------|
|-------------------------------------------------------------|

|---2-0-2--0-----0--0--0--7-7-7--5-5-5-3-3--3--2--2h3p2-0---0-|
|-5-----------3-------------------------------------------3---|
|-4-----------------------------------------------------------|
|-0-----------------------------------------------------------|
|-------------------------------------------------------------|
|-------------------------------------------------------------|

|-0-0---0---0--0-0------|
|-------8---8--7-8------|
|-----------------------|
|-----------------------|
|-----------------------|
|-----------------------|

Chorus a bunch of times

|-0---0-2---2-2--0----|
|-1---1-3---3-3--0----|
|-0---0-2---2-2--0----|
|-2---2-0---0-0--2----| x ?
|-3---3----------2----|
|----------------0----|

Then periodically strum an Em Chord

Rhythm
------

|-----------------------------|
|-----------------------------|
|-----------------------------|
|---0-----------0-------------|
|-------------3------------2--|
|-3----------------------0---0|

|------------|
|------------|
|------------|
|---------2--|
|-2---2------|
|---0---0----|

The rest of the verses are just.

  Emarp                    G    D        Emarp
|--------------------------3--3-2---2----------------|
|--------------------------3--3-3---3----------------|
|-------0-----0-----0------0--0-2---2----0-----0-----|
|---------2-----2-----2----0--0-0---0------2-----2---|
|---2-------2-----2-----2--2--2--------------2-----2-|
|-0---0--------------------3--3----------------------|

And the choruses are:
|-3---3-2---2-0-0---0-0---0-0--|
|-3---3-3---3-0-0---0-0---0-0--|
|-0---0-2---2-0-0---x-0---0-0--|
|-0---0-0---0-0-2---x-2---2-2--| x3
|-2---2---------2---x-2---2-2--|
|-3---3---------0-----0---0-0--|

|-0---0-2---2-2--0--------0---------0-|
|-1---1-3---3-3--0--------0---------3-|
|-0---0-2---2-2--0--------0---------0-|
|-2---2-0---0-0--2--------2-----------|
|-3---3----------2--------2-----------|
|----------------0--------0-----------|

Outro:
|--------------------|
|--------------------|
|------0-------------|
|----------4---0--2--|
|---2-------------2--|
|-0---------------0--|

sfissel@shaw.ca

------------------------------------------------

From: sports2@genie.geis.com
Date: Fri, 25 Aug 95 14:43:00 UTC
Subject: CRD: Opiated - Tragically Hip

Opiated by The Tragically Hip
>From UP TO HERE, 1989

Intro: G5 D5 Em x 3
       D5 E5 Em x 1

Em                                         G5 D5 Em
He bought two fifths of lead-free gasoline
Em                                                G5 D5 Em
Said, the bottle is dusty, but my engine is clean
Em                                                      G5 D5 Em
He bought a nice blue suit with the money he could find
Em                                                G5 D5 Em
If his bride didn't like it St.Peter wouldn't mind

CHORUS:

G5    D5          E5               G5  D5      E5
Now I lie here so out-of-breath and    over-opiated
G5   D5          E5              G5     D5         Em
Maybe I couldn't catch up, no but maybe he could of waited

Well the medicine man started seeing red
You think the snake just dreams up the poison in his head
Addicted to approval, addicted to the air
It was "see if you like it or see you on up there"

CHORUS

CHORDS:

D5  -  x577xx
Em  -  0220xx
E5  -  x799xx
G5  -  355xxx

Duncan
sports2@genie.com
Posted in Up To Here (1989)

Suggest correction
Creating personal tab
Creating personal tab
You can edit any tab online and save it as your Personal.

You can edit, replace or remove any tab part or add personal notes – all changes will be seen only by you.

Personal tabs can be accessed anytime from any device, even offline.
Learn more »
Give kudos to tab author, rate the tab!
1 2 3 4 5
comments
print report bad tab
guest
You may want to rate the tab now too:
select rating
Wanna post a correction for this tab? Suggest correction