Oops, an error
Loading. Please wait.

Poets Bass Tab

version 3
version 3

Whole song

  • Complete version, with more specific detail in the... Show more

Interactive

73 views 1 this week
no commentswrite comment
1 2 3 4 5
3 more votes to show rating
add to favorites
launch autoscroll
font size
0
reset
guitar tuner
Autoscroll
slow
fast
+/-
esc
set tempo
stop
Help us to improve Ultimate-Guitar.com Take our survey!
×
Author
Difficulty
novice
About this tab version
Complete version, with more specific detail in the intro/first verse subtleties. Referenced from live video of Gord's performances where possible. Was this info helpful? Yes No
Artist: The Tragically Hip
Song: Poets
Album: Phantom Power
Part of Song: complete
Transcribed by: Tracy Lalonde


[Intro]
 (0:00) 
G|----------------------|-----------------------|--------------------------|----------------------|
D|----------------------|-----------------------|--------------------------|----------------------|
A|----------------------|-----------------------|--------------------------|----------------------|
E|----------------------|-----------------------|--------------------------|----------------------|
   
 (0:16)  
G|----------------------|-----------------------|--------------------------|----------------------|
D|-------17---17---17---|--17---17---17---17----|------17---17---17p15h17--|-17---17p15h17p15h17--|
A|--15~-----------------|---------------------15|-15~----------------------|----------------------|
E|----------------------|-----------------------|--------------------------|----------------------|


[Verse]
 (0:24)
G|----------------------|-----------------------|------17---17---17---|--17---17---17---17------|
D|-------17---17---17---|--17---17---17---17--x-|-15~-----------------|-------------------------|
A|--15~-----------------|-----------------------|---------------------|---------------------13h-|
E|----------------------|-----------------------|---------------------|-------------------------|

G|----------------------|-----------------------|------17---17---17---|--17---17---17-17-17-----|
D|-------17---17---17---|--17---17---17---17--x-|-15~-----------------|-------------------------|
A|--15~-----------------|-----------------------|---------------------|---------------------13h-|
E|----------------------|-----------------------|---------------------|-------------------------|

G|----------------------|-----------------------|------17---17---17---|--17---17---17---17------|
D|-------17---17---17---|--17---17---17---17--x-|-15~-----------------|-------------------------|
A|--15~-----------------|-----------------------|---------------------|---------------------13h-|
E|----------------------|-----------------------|---------------------|-------------------------|

G|----------------------|-----------------------|------17---17---17---|--17---------------------|
D|-------17---17---17---|--17---17---17---17--x-|-15~-----------------|-------------------------|
A|--15~-----------------|-----------------------|---------------------|-------------------------|
E|----------------------|-----------------------|---------------------|-------------------------|


[Chorus]
 (0:56)
G|-----------------|-----------------|-----------------|-----------------|
D|-----------------|-----------------|-----------------|-----------------|
A|-----------------|-----------------|-----------------|-----------------|
E|-8-8-8-8-8-8-8-7-|-6-6-6-6-6-6-6-7-|-8-8-8-8-8-8-8-7-|-6-6-6-6-6-6-6-7-|

G|-----------------|-----------------|-----------------|-----------------|
D|-----------------|-----------------|-----------------|-----------------|
A|-----------------|-----------------|-----------------|-----------------|
E|-8-8-8-8-8-8-8-7-|-6-6-6-6-6-6-6-7-|-8-8-8-8-8-8-8-7-|-6-6-6-6-6-6-6-7-|


[Pre-Verse]
 (1:12)
G|-----------------|-----------------|-----------------|-----------------|
D|-----------------|-----------------|-----------------|-----------------|
A|-----------------|-----------------|-----------------|-----------------|
E|-8-8-8-8-8-8-8-8-|-8-8-8-8-8-5-6-7-|-8-8-8-8-8-8-8-8-|-8-8-8-8-8-5-6-7-|


[Verse]
 (1:20)
G|-----------------|-----------------|-----------------|------------------|
D|-----------------|-----------------|-----------------|------------------|
A|-----------------|-----------6-6-8-|-8-8-8-8-8-8-8-8-|-8-8-8-8-8-10-6-6-|
E|-8-8-8-8-8-8-8-8-|-8-8-8-8-8-------|-----------------|------------------|

G|-----------------|-----------------|-----------------|------------------|
D|-----------------|-----------------|-----------------|------------------|
A|-----------------|-----------------|-----------------|------------------|
E|-8-8-8-8-8-8-8-8-|-8-8-8-8-8-6-7-8-|-1-1-1-1-1-1-1-1-|-1-1-1-1-1-1-6-7--|

G|-----------------|-----------------|-----------------|------------------|
D|-----------------|-----------------|-----------------|------------------|
A|-----------------|-----------6-6-8-|-8-8-8-8-8-8-8-8-|-8-8-8-8-8-10-6-6-|
E|-8-8-8-8-8-8-8-8-|-8-8-8-8-8-------|-----------------|------------------|

G|-----------------|-----------------|-----------------|------------------|
D|-----------------|-----------------|-----------------|------------------|
A|-----------------|-----------------|-----------------|------------------|
E|-8-8-8-8-8-8-8-8-|-8-8-8-8-8-6-7-8-|-1-1-1-1-1-1-1-1-|-1---------5-6-7--|


[Chorus]
 (1:52)
G|-----------------|-----------------|-----------------|-----------------|
D|-----------------|-----------------|-----------------|-----------------|
A|-----------------|-----------------|-----------------|-----------------|
E|-8-8-8-8-8-8-8-7-|-6-6-6-6-6-6-6-7-|-8-8-8-8-8-8-8-7-|-6-6-6-6-6-6-6-7-|

G|-----------------|-----------------|-----------------|-----------------|
D|-----------------|-----------------|-----------------|-----------------|
A|-----------------|-----------------|-----------------|-----------------|
E|-8-8-8-8-8-8-8-7-|-6-6-6-6-6-6-6-7-|-8-8-8-8-8-8-8-7-|-6-6-6-6-6-6-6-7-|



[Bridge]
 (2:08)
G|-----------------|-----------------|-----------------|-----------------|
D|-----------------|-----------------|-----------------|-----------------|
A|-----------------|-6-6-6-6-6-6-6-6-|-8-8-8-8-8-8-8-8-|-----------------|
E|-8-8-8-8-8-8-8-8-|-----------------|-----------------|-x-3-6-3-6-3-6-3-|

G|-----------------|-----------------|-----------------|-----------------|
D|-----------------|-----------------|-----------------|-----------------|
A|-----------------|-6-6-6-6-6-6-6-6-|-8-8-8-8-8-8-8-8-|-----------------|
E|-8-8-8-8-8-8-8-8-|-----------------|-----------------|-x-3-6-3-6-3-6-7-|



[Pre-Chorus]
 (2:24)
G|-----------------|-----------------|-----------------|-----------------|
D|-----------------|-----------------|-----------------|-----------------|
A|-----------------|-----------------|-----------------|-----------------|
E|-8-8-8-8-8-8-8-7-|-6-6-6-6-6-6-6-7-|-8-8-8-8-8-8-8-7-|-6-6-6-6-6-6-6-7-|



[Chorus]
 (2:32)
G|-----------------|-----------------|-----------------|-----------------|
D|-----------------|-----------------|-----------------|-----------------|
A|-----------------|-----------------|-----------------|-----------------|
E|-8-8-8-8-8-8-8-7-|-6-6-6-6-6-6-6-7-|-8-8-8-8-8-8-8-7-|-6-6-6-6-6-6-6-7-|

G|-----------------|-----------------|-----------------|-----------------|
D|-----------------|-----------------|-----------------|-----------------|
A|-----------------|-----------------|-----------------|-----------------|
E|-8-8-8-8-8-8-8-7-|-6-6-6-6-6-6-6-7-|-8-8-8-8-8-8-8-7-|-6-6-6-6-6-6-6-7-|



[Outro]
 (2:48)
G|-----------------|-----------------|-----------------|-----------------|
D|-----------------|-----------------|-----------------|-----------------|
A|-----------------|-6-6-6-6-6-6-6-6-|-8-8-8-8-8-8-8-8-|-----------------|
E|-8-8-8-8-8-8-8-8-|-----------------|-----------------|-x-3-6-3-6-3-6-3-|

G|-----------------|-----------------|-----------------|-----------------|
D|-----------------|-----------------|-----------------|-----------------|
A|-----------------|-6-6-6-6-6-6-6-6-|-8-8-8-8-8-8-8-8-|-----------------|
E|-8-8-8-8-8-8-8-8-|-----------------|-----------------|-x-3-6-3-6-3-6-7-|

 (3:03)
G|-----------------|-----------------|-----------------|-----------------|
D|-----------------|-----------------|-----------------|-----------------|
A|---------------6-|-6-6-6-6-6-6-6-6-|-8-8-8-8-8-8-8-8-|-----------------|
E|-8-8-8-8-8-8-8---|-----------------|-----------------|-x-3-6-3-6-3-6-3-|

G|-----------------|-----------------|-----------------|-----------------|
D|-----------------|-----------------|-----------------|-----------------|
A|-----------------|-6-6-6-6-6-6-6-6-|-8-8-8-8-8-8-8-8-|-----------------|
E|-8-8-8-8-8-8-8-8-|-----------------|-----------------|-x-3-6-3-6-3-6-7-|

 (3:19)
G|-----------------|-----------------|-----------------|-----------------|
D|-----------------|-----------------|-----------------|-----------------|
A|-----------------|-----------------|-----------------|-----------------|
E|-8-8-8-8-8-8-8-7-|-6-6-6-6-6-6-6-7-|-8-8-8-8-8-8-8-7-|-6-6-6-6-6-6-6-7-|

G|-----------------|-----------------|-----------------|-----------------|
D|-----------------|-----------------|-----------------|-----------------|
A|-----------------|-----------------|-----------------|-----------------|
E|-8-8-8-8-8-8-8-7-|-6-6-6-6-6-6-6-7-|-8-8-8-8-8-8-8-7-|-6-6-6-6-6-6-6-7-|

G|-----------------|-----------------|-----------------|-----------------|
D|-----------------|-----------------|-----------------|-----------------|
A|-----------------|-----------------|-----------------|-----------------|
E|-8-8-8-8-8-8-8-7-|-6-6-6-6-6-6-6-7-|-8-8-8-8-8-8-8-7-|-6-6-6-6-6-6-6-7-|

G|-----------------|-----------------|-----------------|-----------------|
D|-----------------|-----------------|-----------------|-----------------|
A|-----------------|-----------------|-----------------|-----------------|
E|-8-8-8-8-8-8-8-7-|-6-6-6-6-6-6-6-7-|-8-8-8-8-8-8-8-7-|-6-6-6-6-6-3-6-3-|

G|-----------------|--------12p10---10----------|
D|-----------------|-------------13----13--10~--|
A|-----------------|----------------------------|
E|-8~--------------|----------------------------|



*********************************** 

| h   Hammer-on 
| p   Pull-off 
| ~   Vibrato/let ring  
| x   Dead note 

***********************************






Suggest correction
Give kudos to tab author, rate the tab!
1 2 3 4 5
comments
print report bad tab
guest
You may want to rate the tab now too:
select rating
Wanna post a correction for this tab? Suggest correction