Oops, an error
Loading. Please wait.

The Magic Man tab

163 views 30 this week
no commentswrite comment
1 2 3 4 5
3 more votes to show rating
add to favorites
×
Save as Personal and add changes to this tab that will be seen only by you. Learn more ›
×
You can save this tab as Personal to edit and correct it or add notes. All changes will be seen only by you. Learn more »
launch autoscroll
font size
0
reset
how to read this tab
guitar tuner
edit
Autoscroll
slow
fast
+/-
esc
set tempo
stop
[Intro]
e|----------0----------|-----------0------|----------0----------|-----------0------|
B|-------0-----0-------|--------0---------|-------0-----0-------|--------0---------|
G|----0-----------0----|-----0------------|----0-----------0----|-----0------------|
D|-0-------------------|--0---------------|-0-------------------|--0---------------|
A|---------------------|------------------|---------------------|------------------|
E|---------------------|------------------|---------------------|------------------|

[Verse 1]
e|-5-----4------------------------------|
B|-------------5--5--2-----3-----2------|
G|--------------------------------------|
D|--------------------------------------|
A|--------------------------------------|
E|--------------------------------------|

     The hand is quicker than the eye

e|-5-----4------------------------------|
B|-------------5--5--2-----3-----2------|
G|--------------------------------------|
D|--------------------------------------|
A|--------------------------------------|
E|--------------------------------------|

     The mind is quicker than the hands

e|-5-----4------------------------------|
B|-------------5--5--2-----3-----2------|
G|--------------------------------------|
D|--------------------------------------|
A|--------------------------------------|
E|--------------------------------------|

     Watch closely and you will see

e|-5-----4------------------------------|
B|-------------5--5--2-----3-----2------|
G|--------------------------------------|
D|--------------------------------------|
A|--------------------------------------|
E|--------------------------------------|

     Can't tell you how its done, you'll understand

[Chorus]
   D                 Am                     Em                Em
e|-2--2--2--2--2-----0--0--0--0--0-------|--0--0--0--0--0-----0--0--0--0--0------|
B|-3--3--3--3--3-----1--1--1--1--1-------|--0--0--0--0--0-----0--0--0--0--0------|
G|-2--2--2--2--2-----2--2--2--2--2-------|--0--0--0--0--0-----0--0--0--0--0------|
D|-0--0--0--0--0-----2--2--2--2--2-------|--2--2--2--2--2-----2--2--2--2--2------|
A|-0--0--0--0--0-----0--0--0--0--0-------|--2--2--2--2--2-----2--2--2--2--2------|
E|-------------------0--0--0--0--0-------|--0--0--0--0--0-----0--0--0--0--0------|

    I'm a magic man - you're a magic man     He's a magic man - She's a magic man

   D                 Am                     Em                Em
e|-2--2--2--2--2-----0--0--0--0--0-------|--0--0--0--0--0-----0--0--0--0--0------|
B|-3--3--3--3--3-----1--1--1--1--1-------|--0--0--0--0--0-----0--0--0--0--0------|
G|-2--2--2--2--2-----2--2--2--2--2-------|--0--0--0--0--0-----0--0--0--0--0------|
D|-0--0--0--0--0-----2--2--2--2--2-------|--2--2--2--2--2-----2--2--2--2--2------|
A|-0--0--0--0--0-----0--0--0--0--0-------|--2--2--2--2--2-----2--2--2--2--2------|
E|-------------------0--0--0--0--0-------|--0--0--0--0--0-----0--0--0--0--0------|

    I'm a magic man - you're a magic man     He's a magic man - She's a magic man

[Verse 2]
e|-5-----4------------------------------|
B|-------------5--5--2-----3-----2------|
G|--------------------------------------|
D|--------------------------------------|
A|--------------------------------------|
E|--------------------------------------|

     Look and you will bare witness

e|-5-----4------------------------------|
B|-------------5--5--2-----3-----2------|
G|--------------------------------------|
D|--------------------------------------|
A|--------------------------------------|
E|--------------------------------------|

     There is nothing up my sleeve

e|-5-----4------------------------------|
B|-------------5--5--2-----3-----2------|
G|--------------------------------------|
D|--------------------------------------|
A|--------------------------------------|
E|--------------------------------------|

     This trick will astound you

e|-5-----4------------------------------|
B|-------------5--5--2-----3-----2------|
G|--------------------------------------|
D|--------------------------------------|
A|--------------------------------------|
E|--------------------------------------|

     You will just not believe

[Chorus]
   D                 Am                     Em                Em
e|-2--2--2--2--2-----0--0--0--0--0-------|--0--0--0--0--0-----0--0--0--0--0------|
B|-3--3--3--3--3-----1--1--1--1--1-------|--0--0--0--0--0-----0--0--0--0--0------|
G|-2--2--2--2--2-----2--2--2--2--2-------|--0--0--0--0--0-----0--0--0--0--0------|
D|-0--0--0--0--0-----2--2--2--2--2-------|--2--2--2--2--2-----2--2--2--2--2------|
A|-0--0--0--0--0-----0--0--0--0--0-------|--2--2--2--2--2-----2--2--2--2--2------|
E|-------------------0--0--0--0--0-------|--0--0--0--0--0-----0--0--0--0--0------|

    I'm a magic man - you're a magic man     He's a magic man - She's a magic man

   D                 Am                     Em                Em

e|-2--2--2--2--2-----0--0--0--0--0-------|--0--0--0--0--0-----0--0--0--0--0------|
B|-3--3--3--3--3-----1--1--1--1--1-------|--0--0--0--0--0-----0--0--0--0--0------|
G|-2--2--2--2--2-----2--2--2--2--2-------|--0--0--0--0--0-----0--0--0--0--0------|
D|-0--0--0--0--0-----2--2--2--2--2-------|--2--2--2--2--2-----2--2--2--2--2------|
A|-0--0--0--0--0-----0--0--0--0--0-------|--2--2--2--2--2-----2--2--2--2--2------|
E|-------------------0--0--0--0--0-------|--0--0--0--0--0-----0--0--0--0--0------|

    I'm a magic man - you're a magic man     He's a magic man - She's a magic man

[Verse 3]
e|-5-----4------------------------------|
B|-------------5--5--2-----3-----2------|
G|--------------------------------------|
D|--------------------------------------|
A|--------------------------------------|
E|--------------------------------------|

     Please step onto the stage

e|-5-----4------------------------------|
B|-------------5--5--2-----3-----2------|
G|--------------------------------------|
D|--------------------------------------|
A|--------------------------------------|
E|--------------------------------------|

     Help me with this illusion

e|-5-----4------------------------------|
B|-------------5--5--2-----3-----2------|
G|--------------------------------------|
D|--------------------------------------|
A|--------------------------------------|
E|--------------------------------------|

     Step into my cabinet

e|-5-----4------------------------------|
B|-------------5--5--2-----3-----2------|
G|--------------------------------------|
D|--------------------------------------|
A|--------------------------------------|
E|--------------------------------------|

     filled with confusion

[Chorus]
   D                 Am                     Em                Em
e|-2--2--2--2--2-----0--0--0--0--0-------|--0--0--0--0--0-----0--0--0--0--0------|
B|-3--3--3--3--3-----1--1--1--1--1-------|--0--0--0--0--0-----0--0--0--0--0------|
G|-2--2--2--2--2-----2--2--2--2--2-------|--0--0--0--0--0-----0--0--0--0--0------|
D|-0--0--0--0--0-----2--2--2--2--2-------|--2--2--2--2--2-----2--2--2--2--2------|
A|-0--0--0--0--0-----0--0--0--0--0-------|--2--2--2--2--2-----2--2--2--2--2------|
E|-------------------0--0--0--0--0-------|--0--0--0--0--0-----0--0--0--0--0------|

    I'm a magic man - you're a magic man     He's a magic man - She's a magic man

   D                 Am                     Em                Em

e|-2--2--2--2--2-----0--0--0--0--0-------|--0--0--0--0--0-----0--0--0--0--0------|
B|-3--3--3--3--3-----1--1--1--1--1-------|--0--0--0--0--0-----0--0--0--0--0------|
G|-2--2--2--2--2-----2--2--2--2--2-------|--0--0--0--0--0-----0--0--0--0--0------|
D|-0--0--0--0--0-----2--2--2--2--2-------|--2--2--2--2--2-----2--2--2--2--2------|
A|-0--0--0--0--0-----0--0--0--0--0-------|--2--2--2--2--2-----2--2--2--2--2------|
E|-------------------0--0--0--0--0-------|--0--0--0--0--0-----0--0--0--0--0------|

    I'm a magic man - you're a magic man     He's a magic man - She's a magic man

[Verse 4]
e|-5-----4------------------------------|
B|-------------5--5--2-----3-----2------|
G|--------------------------------------|
D|--------------------------------------|
A|--------------------------------------|
E|--------------------------------------|

     Now the trick has been done

e|-5-----4------------------------------|
B|-------------5--5--2-----3-----2------|
G|--------------------------------------|
D|--------------------------------------|
A|--------------------------------------|
E|--------------------------------------|

     I will take my applause

e|-5-----4------------------------------|
B|-------------5--5--2-----3-----2------|
G|--------------------------------------|
D|--------------------------------------|
A|--------------------------------------|
E|--------------------------------------|

     When you ask me how's it done

e|-5-----4------------------------------|
B|-------------5--5--2-----3-----2------|
G|--------------------------------------|
D|--------------------------------------|
A|--------------------------------------|
E|--------------------------------------|

     I just say it's magic of course

[Chorus]
   D                 Am                     Em                Em
e|-2--2--2--2--2-----0--0--0--0--0-------|--0--0--0--0--0-----0--0--0--0--0------|
B|-3--3--3--3--3-----1--1--1--1--1-------|--0--0--0--0--0-----0--0--0--0--0------|
G|-2--2--2--2--2-----2--2--2--2--2-------|--0--0--0--0--0-----0--0--0--0--0------|
D|-0--0--0--0--0-----2--2--2--2--2-------|--2--2--2--2--2-----2--2--2--2--2------|
A|-0--0--0--0--0-----0--0--0--0--0-------|--2--2--2--2--2-----2--2--2--2--2------|
E|-------------------0--0--0--0--0-------|--0--0--0--0--0-----0--0--0--0--0------|

    I'm a magic man - you're a magic man     He's a magic man - She's a magic man

   D                 Am                     Em                Em
e|-2--2--2--2--2-----0--0--0--0--0-------|--0--0--0--0--0-----0--0--0--0--0------|
B|-3--3--3--3--3-----1--1--1--1--1-------|--0--0--0--0--0-----0--0--0--0--0------|
G|-2--2--2--2--2-----2--2--2--2--2-------|--0--0--0--0--0-----0--0--0--0--0------|
D|-0--0--0--0--0-----2--2--2--2--2-------|--2--2--2--2--2-----2--2--2--2--2------|
A|-0--0--0--0--0-----0--0--0--0--0-------|--2--2--2--2--2-----2--2--2--2--2------|
E|-------------------0--0--0--0--0-------|--0--0--0--0--0-----0--0--0--0--0------|

    I'm a magic man - you're a magic man     He's a magic man - She's a magic man

[Outro]
   D                 Am                     Em                Em
e|-2--2--2--2--2-----0--0--0--0--0-------|--0--0--0--0--0-----0--0--0--0--0------|
B|-3--3--3--3--3-----1--1--1--1--1-------|--0--0--0--0--0-----0--0--0--0--0------|
G|-2--2--2--2--2-----2--2--2--2--2-------|--0--0--0--0--0-----0--0--0--0--0------|
D|-0--0--0--0--0-----2--2--2--2--2-------|--2--2--2--2--2-----2--2--2--2--2------|
A|-0--0--0--0--0-----0--0--0--0--0-------|--2--2--2--2--2-----2--2--2--2--2------|
E|-------------------0--0--0--0--0-------|--0--0--0--0--0-----0--0--0--0--0------|

    I'm a magic man - you're a magic man     He's a magic man - She's a magic man

    Em                Em
e|--0--0--0--0--0-----0--0--0--0--0------|
B|--0--0--0--0--0-----0--0--0--0--0------|
G|--0--0--0--0--0-----0--0--0--0--0------|
D|--2--2--2--2--2-----2--2--2--2--2------|
A|--2--2--2--2--2-----2--2--2--2--2------|
E|--0--0--0--0--0-----0--0--0--0--0------|

    I'm a magic man - you're a magic man     She's a magic man - She's a magic man

            
            
Suggest correction
Creating personal tab
Creating personal tab
You can edit any tab online and save it as your Personal.

You can edit, replace or remove any tab part or add personal notes – all changes will be seen only by you.

Personal tabs can be accessed anytime from any device, even offline.
Learn more »
Give kudos to tab author, rate the tab!
1 2 3 4 5
comments
print report bad tab
guest
You may want to rate the tab now too:
select rating
Wanna post a correction for this tab? Suggest correction