Oops, an error
Loading. Please wait.

Our Roots Tab

4,649 views 21 this week
no commentswrite comment
1 2 3 4 5
excellent!
x 5
add to favorites
launch autoscroll
font size
0
reset
how to read this tab
guitar tuner
Autoscroll
slow
fast
+/-
esc
set tempo
stop
Help us to improve Ultimate-Guitar.com Take our survey!
×
Author
-----------------------------------------------------------------------------
                     THE TREES & THE WILD - OUR ROOTS
-----------------------------------------------------------------------------
Submitted by : Bonnie 'Iben' Wirawan
E-mail       : ben_iben24@yahoo.com

Standart Tuning
_____________________________________________________________________________

ini tab pertama saya, jadi kalo ada salah, mohon maklum.
dan ada beberapa chord yang saya gak tau namanya dan saya liat di chordbook.com
tapi saya yakin seengaknya >>85% bener, amin.

maaf kalo penempatan tone, dan tempo tidak tepat. mohon disesuaikan dengan lagu.
kalo ada kesalahan, mohon kirim ke e-mail saya biar saya tau bagian mana yang salah.


lagu ini terbagi jadi 3 gitar ;

1.R(rhytm), 2.L(lead), 3.B(bass)
_____________________________________________________________________________
ini tab beginner, masih standart dan tanpa tehnik-tehnik.
tapi nanti di bawah ada tambahan buat yang udah intermediate.
_____________________________________________________________________________
untuk detik 0.00 sampai 1.47 (baca : 1 menit 47 detik) itu cuma suara 'aaah' dan R..

R kuncinya cuma E* dan A

 Esus2(maj7)      A
e:2              e:0
B:4              B:2
G:4              G:2
D:2              D:2
A:x              A:0
E:x              E:x

1.48 .. pertama R main
 
 R
e|--------------------------------|| ini main 2x
B|----7-------7-------7-------7---||
G|--8---8---8---8---8---8---8---8-||
D|--------------------------------||
A|7---------------7---------------||
E|--------7---------------7-------||

stelah itu, R, M dan B main berbarengan..

 R
e|-----------------------------------------------------------------|
B|----7-------7-------7-------7-------7-------7-------7-------7----|
G|--8---8---8---8---8---8---8---8---8---8---8---8---8---8---8---8--|
D|-----------------------------------------------------------------|
A|7---------------7---------------7---------------7----------------|
E|--------7---------------7---------------7---------------7--------|

 L
e|--------------------------------7-7---7--------------------------|
B|9-9-7-9-----------5-7-9-7-5-7-9-----9-------------5-7-9-7-5-7-5--|
G|-----------------------------------------------------------------|
D|-----------------------------------------------------------------|
A|-----------------------------------------------------------------|
E|-----------------------------------------------------------------|

 B
e|-----------------------------------------------------------------|
B|-----------------------------------------------------------------|
G|--------8---------------8---------------8---------------8--------|
D|----6-9---9-6-9-----6-9---9-6-9-----6-9---9-6-9-----6-9---9-6-9--|
A|7---------------7---------------7---------------7----------------|
E|-----------------------------------------------------------------|
____________________________________________________________________
____________________________________________________________________

 R
e|-----------------------------------------------------------------|
B|----5-------5-------5-------5-------7-------7-------7-------7----|
G|--6---6---6---6---6---6---6---6---8---8---8---8---8---8---8---8--|
D|-----------------------------------------------------------------|
A|0-------7-------0-------7-------7---------------7----------------|
E|----------------------------------------7---------------7--------|

 L
e|-----------------------------------------------------------------|
B|----------------------5-9-7-5---9-9-7-9-----------5-7-9-7-5-7-9--|
G|6-6-4-6-----------4-6---------6----------------------------------|
D|-----------------------------------------------------------------|
A|-----------------------------------------------------------------|
E|-----------------------------------------------------------------|

 B
e|-----------------------------------------------------------------|
B|-----------------------------------------------------------------|
G|----------------------------------------8---------------8--------|
D|--------6---------------6-----------6-9---9-6-9-----6-9---9-6-9--|
A|----4-7---7-4-7-----4-7---7-4---7---------------7----------------|
E|5---------------5-------------5----------------------------------|
____________________________________________________________________
____________________________________________________________________

 R
e|-----------------------------------------------------------------|
B|----7-------7-------7-------7-------5-------5-------5-------5----|
G|--8---8---8---8---8---8---8---8---6---6---6---6---6---6---6---6--|
D|-----------------------------------------------------------------|
A|7---------------7---------------0-------7-------0-------7--------|
E|--------7---------------7----------------------------------------|

 L
e|7-7---7----------------------------------------------------------|
B|----9-------------5-7-9-7-5-7-5-----------------------5-9-7-5----|
G|---------------------------------6-6-4-6----------4-6---------6--|
D|-----------------------------------------------------------------|
A|-----------------------------------------------------------------|
E|-----------------------------------------------------------------|

 B
e|-----------------------------------------------------------------|
B|-----------------------------------------------------------------|
G|--------8---------------8----------------------------------------|
D|----6-9---9-6-9-----6-9---9-6-9---------6---------------6--------|
A|7---------------7-------------------4-7---7-4-7-----4-7---7-4-7--|
E|--------------------------------5---------------5----------------|
____________________________________________________________________
____________________________________________________________________

 R
e|------------------------------| 
B|----7-------7-------7-------7-|
G|--8---8---8---8---8---8---8---|
D|------------------------------|
A|7---------------7-------------| 
E|--------7---------------7-----|

 L
e|------------------------------|
B|9-9-7-9-----------5-7-9-7--5--|
G|------------------------------|
D|------------------------------|
A|------------------------------|
E|------------------------------|

 B
e|------------------------------|
B|------------------------------|
G|--------8---------------8-----|
D|----6-9---9-6-9-----6-9---9-6-|
A|7---------------7-------------|
E|------------------------------|
_________________________________
_________________________________
_________________________________
skarang di bagian ke 2.28-2.53

R =  F#m         C#m            E	 Em(maj7)    
    e:2         e:4           e:7	   e:7 
    B:2         B:5	      B:9	   B:8
    G:2         G:6	      G:9	   G:8 
    D:4         D:6	      D:9	   D:9 
    A:4         A:4	      A:7	   A:7 
    E:2         E:x	      E:x	   E:x 
 R
e|2--2--2--2----4--4--4--4----2--2--2--2----4--4--4--4----|
B|2--2--2--2----5--5--5--5----2--2--2--2----5--5--5--5----|
G|2--2--2--2----6--6--6--6----2--2--2--2----6--6--6--6----|
D|4--4--4--4----6--6--6--6----4--4--4--4----6--6--6--6----|
A|4--4--4--4----4--4--4--4----4--4--4--4----4--4--4--4----|
E|2--2--2--2----x--x--x--x----2--2--2--2----x--x--x--x----|


 L
e|4--------4----5--------5----4--------4----0--------0----|
B|--5-------5-----5-------5-----5-------5-----4-------4---|
G|----4------4------4------4------4------4------4------4--|
D|--------------------------------------------------------|
A|--------------------------------------------------------|
E|--------------------------------------------------------|

 B
e|--------------------------------------------------------|
B|--------------------------------------------------------|
G|--------------------------------------------------------|
D|----------------------2-4-6-------------------------2---|
A|--------2-4---4-4-4-4---------------2-4---4-4-4-2-4---4-|
E|2-2-2-4-----4---------------2-2-2-4-----4---------------|
___________________________________________________________
___________________________________________________________
 
 R
e|2--2--2--2----4--4--4--4----7-------------7-------------|
B|2--2--2--2----5--5--5--5----9-------------8-------------|
G|2--2--2--2----6--6--6--6----9-------------8-------------|
D|4--4--4--4----6--6--6--6----9-------------9-------------|
A|4--4--4--4----4--4--4--4----7-------------7-------------|
E|2--2--2--2----x--x--x--x----x-------------x-------------|

 L
e|4--------4----5--------5----0-------------9-------------|
B|--5-------5-----5-------5---5-------------8-------------|
G|----4------4------4------4--4-------------8-------------|
D|--------------------------------------------------------|
A|--------------------------------------------------------|
E|--------------------------------------------------------|

 B
e|--------------------------------------------------------|
B|--------------------------------------------------------|
G|--------------------------------------------------------|
D|----------------------2-4-6-2---------------------------|
A|--------2-4---4-4-4-4-----------------------------------|
E|2-2-2-4-----4-------------------------------------------|
___________________________________________________________
___________________________________________________________
 R
e|---------------------------------------------------------|
B|----7-------7-------7-------7-------7-------7---7--7--7--|
G|--8---8---8---8---8---8---8---8---8---8---8---8-8--8--8--|
D|---------------------------------------------------------|
A|7---------------7---------------7---------------7--7--7--|
E|--------7---------------7---------------7----------------|

 L
e|7--7--7---------7--7--7---------7--7--7---------7--7--7--|
B|9--9--9---------9--9--9---------9--9--9---------9--9--9--|
G|9--9--9---------9--9--9---------9--9--9---------9--9--9--|
D|---------------------------------------------------------|
A|---------------------------------------------------------|
E|---------------------------------------------------------|
 
 B
e|---------------------------------------------------------|
B|---------------------------------------------------------|
G|---------------------------------------------------------|
D|-----------7-6-------------7-6-------------7-6--6--6--6--|
A|7--7--7---------7--7--7---------7--7--7---------7--7--7--|
E|---------7---------------7---------------7---------------|
___________________________________________________________
___________________________________________________________
___________________________________________________________

2.54-3.42 sama seperti yang udah saya tulis smua di atas,
tinggal di sesuaikan.

____________________________________________________________
3.43-4.38

 R
e|2--------------4--------------2--------------4--------------|
B|2--------------5--------------2--------------5--------------|
G|2--------------6--------------2--------------6--------------|
D|4--------------6--------------4--------------6--------------|
A|4--------------4--------------4--------------4--------------|
E|2--------------x--------------2--------------x--------------|

 L
e|---12--11--12-----12--11--12-----12--11--12-----12--11------|
B|---------------9-----------------------------9----------12--|
G|9-----------------------------9-----------------------------|
D|------------------------------------------------------------|
A|------------------------------------------------------------|
E|------------------------------------------------------------|
______________________________________________________________
______________________________________________________________
 R
e|2--------------4--------------2--------------4--------------|
B|2--------------5--------------2--------------5--------------|
G|2--------------6--------------2--------------6--------------|
D|4--------------6--------------4--------------6--------------|
A|4--------------4--------------4--------------4--------------|
E|2--------------x--------------2--------------x--------------|

 L
e|---12--11--12-----12--11--12-----12--11--12-----12--11------|
B|---12--12--12--9--12--12--12-----12--12--12--9--12--12--12--|
G|9-----------------------------9-----------------------------|
D|------------------------------------------------------------|
A|------------------------------------------------------------|
E|------------------------------------------------------------|
______________________________________________________________
______________________________________________________________

 R
e|2--2--2--2--2--4--4--4--4--4--2--2--2--2--2--4--4--4--4--4--|
B|2--2--2--2--2--5--5--5--5--5--2--2--2--2--2--5--5--5--5--5--|
G|2--2--2--2--2--6--6--6--6--6--2--2--2--2--2--6--6--6--6--6--|
D|4--4--4--4--4--6--6--6--6--6--4--4--4--4--4--6--6--6--6--6--|
A|4--4--4--4--4--6--6--6--6--6--4--4--4--4--4--6--6--6--6--6--|
E|2--2--2--2--2--x--x--x--x--x--2--2--2--2--2--x--x--x--x--x--|

 L
e|---12--11--12-----12--11--12-----12--11--12-----12--11------|
B|---12--12--12--9--12--12--12-----12--12--12--9--12--12--12--|
G|9-----------------------------9-----------------------------|
D|------------------------------------------------------------|
A|------------------------------------------------------------|
E|------------------------------------------------------------|
_______________________________________________________________
_______________________________________________________________
stelah itu, di 4.19-4.40, R bermain lebih 'intens/lebih energic' 
(nada masih sama sperti di atas)

di 4.35
 R
e|2--2--2--2--2--4--4--4--4--4--2--2--2--2--2--4-4-4-4-4-4-4-4-4-4-.....| ketika L
B|2--2--2--2--2--5--5--5--5--5--2--2--2--2--2--5-5-5-5-5-5-5-5-5-5-.....| berhenti, 
G|2--2--2--2--2--6--6--6--6--6--2--2--2--2--2--6-6-6-6-6-6-6-6-6-6-.....| R masih tetap
D|4--4--4--4--4--6--6--6--6--6--4--4--4--4--4--6-6-6-6-6-6-6-6-6-6-.....| main
A|4--4--4--4--4--6--6--6--6--6--4--4--4--4--4--6-6-6-6-6-6-6-6-6-6-.....|
E|2--2--2--2--2--x--x--x--x--x--2--2--2--2--2--x-x-x-x-x-x-x-x-x-x-.....|

 L
e|---12--11--12-----12--11--12-----12--11--12-----12--11------|
B|---12--12--12--9--12--12--12-----12--12--12--9--12--12--12--|
G|9-----------------------------9-----------------------------|
D|------------------------------------------------------------|
A|------------------------------------------------------------|
E|------------------------------------------------------------|
_________________________________________________________________________
_________________________________________________________________________
_________________________________________________________________________
4.39-selesai, di sini tempo-nya naik jadi lebih cepat.
4.39-5.19

 R
e|2-------------4-------------2-------------4-4-4-4-4-4-4-4-|
B|2-------------5-------------2-------------5-5-5-5-5-5-5-5-|
G|2-------------6-------------2-------------6-6-6-6-6-6-6-6-|
D|4-------------6-------------4-------------6-6-6-6-6-6-6-6-|
A|4-------------4-------------4-------------4-4-4-4-4-4-4-4-|
E|2-------------x-------------2-------------x-x-x-x-x-x-x-x-|

 B
e|----------------------------------------------------------|
B|----------------------------------------------------------|
G|----------------------------------------------------------|
D|4----2-4----2-----------2---4----2-4----2-----------------|
A|---4------4---4----2-4----4----4------4---4-4-4-4-4-4-4-4-|
E|-----------------4----------------------------------------|
_____________________________________________________________
_____________________________________________________________

 R
e|2--2--2---2---4--4--4---4---2--2--2---2---4--4--4---4---|
B|2--2--2---2---5--5--5---5---2--2--2---2---5--5--5---5---|
G|2--2--2---2---6--6--6---6---2--2--2---2---6--6--6---6---|
D|4--4--4---4---6--6--6---6---4--4--4---4---6--6--6---6---| 2x
A|4--4--4---4---4--4--4---4---4--4--4---4---4--4--4---4---|
E|2--2--2---2---x--x--x---x---2--2--2---2---x--x--x---x---|

 L
e|--------------------------------------------------------|
B|7-7-5-7-------5-7-9-7-5-7-5-7-7-5-7-------5-7-9-7-5-7-9-|
G|--------------------------------------------------------|
D|--------------------------------------------------------| 2x
A|--------------------------------------------------------|
E|--------------------------------------------------------|

 B
e|--------------------------------------------------------|
B|--------------------------------------------------------|
G|--------------------------------------------------------|
D|4----2-4----2-----------2---4----2-4----2-----------2---| 2x
A|---4------4---4----2-4----4----4------4---4----2-4----4-|
E|-----------------4---------------------------4----------|
___________________________________________________________
___________________________________________________________
 R
e|2--2--2---2---4--4--4---4---2--2--2---2---4--4--4---4---|
B|2--2--2---2---5--5--5---5---2--2--2---2---5--5--5---5---|
G|2--2--2---2---6--6--6---6---2--2--2---2---6--6--6---6---|
D|4--4--4---4---6--6--6---6---4--4--4---4---6--6--6---6---| 2x
A|4--4--4---4---4--4--4---4---4--4--4---4---4--4--4---4---|
E|2--2--2---2---x--x--x---x---2--2--2---2---x--x--x---x---|

 L
e|7-7---7---------------------7-7---7---------------------|
B|----9---------5-7-9-7-5-7-9-----9---------5-7-9-7-5-7-9-| 2x
G|--------------------------------------------------------|(tapi terakhirnya
D|--------------------------------------------------------| diganti. 5-7-9-7-5-7-9
A|--------------------------------------------------------| menjadi 5-7-9-7--5--)
E|--------------------------------------------------------|

 B
e|--------------------------------------------------------|
B|--------------------------------------------------------|
G|--------------------------------------------------------| 2x
D|4----2-4----2-----------2---4----2-4----2-----------2---|
A|---4------4---4----2-4----4----4------4---4----2-4----4-|
E|-----------------4---------------------------4----------|
__________________________________________________________
__________________________________________________________
outro :

R, L, dan B

 Esus4(add9)            C#m
    e:0			e:4
    B:0			B:5
    G:2			G:6
    D:2			D:6
    A:0			A:4
    E:2			E:x

__________________________________________________________________
__________________________________________________________________
__________________________________________________________________









TEHNIK.....

untuk Bass


 B
e|-----------------------------------------------------------------|
B|-----------------------------------------------------------------|
G|--------8---------------8---------------8---------------8--------| ini standartnya
D|----6-9---9-6-9-----6-9---9-6-9-----6-9---9-6-9-----6-9---9-6-9--|
A|7---------------7---------------7---------------7----------------|
E|-----------------------------------------------------------------|

 B
e|-------------------------------------------------------------------------|
B|-------------------------------------------------------------------------| / = up & down
G|--------8/8---------------8/8---------------8/8---------------8/8--------| 
D|--6/6-9-----9-6-9---6/6-9-----9-6-9---6/6-9-----9-6-9---6/6-9-----9-6-9--|    mute
A|7-----------------7-----------------7-----------------7------------------|
E|-------------------------------------------------------------------------|

 B
e|-----------------------------------------------------------------|
B|-----------------------------------------------------------------|
G|----------------------------------------8---------------8--------| ini standartnya
D|--------6---------------6-----------6-9---9-6-9-----6-9---9-6-9--|
A|----4-7---7-4-7-----4-7---7-4---7---------------7----------------|
E|5---------------5-------------5----------------------------------|

 B
e|-------------------------------------------------------------------------|
B|-------------------------------------------------------------------------| / = up & down picking
G|--------------------------------------------8/8---------------8/8--------|
D|--------6/6---------------6/6---------6/6-9-----9-6-9---6/6-9-----9-6-9--|   mute
A|--4/4-7-----7-4-7---4/4-7-----7-4---7-----------------7------------------|
E|5-----------------5---------------5--------------------------------------|
____________________________________________________________________________
____________________________________________________________________________
 B
e|--------------------------------------------------------|
B|--------------------------------------------------------|
G|--------------------------------------------------------| ini standartnya
D|----------------------2-4-6-------------------------2---|
A|--------2-4---4-4-4-4---------------2-4---4-4-4-2-4---4-|
E|2-2-2-4-----4---------------2-2-2-4-----4---------------|

 B
e|-----------------------------------------------------------------------|
B|-----------------------------------------------------------------------| > = hammer
G|-----------------------------------------------------------------------| ~ = slide
D|----------------------------2-4~6----------------------------2-4>2-----|
A|----------2>4>2---4-4-4-2>4----------------2>4>2---4-4-4-2>4-------4>2-|
E|2-2-2-2>4-------4-----------------2-2-2-2>4------4---------------------|
______________________________________________________________________________________
 B
e|--------------------------------------------------------|
B|--------------------------------------------------------|
G|--------------------------------------------------------| ini standartnya
D|----------------------2-4-6-2---------------------------|
A|--------2-4---4-4-4-4-----------------------------------|
E|2-2-2-4-----4-------------------------------------------|

 B
e|--------------------------------------------------------|
B|--------------------------------------------------------| > = hammer
G|--------------------------------------------------------| ~ = slide
D|----------------------------2-4~6~2---------------------|
A|----------2>4>2---4-4-4-2>4-----------------------------|
E|2-2-2-2>4-------4---------------------------------------|
_______________________________________________________________________________
 B
e|---------------------------------------------------------|
B|---------------------------------------------------------|
G|---------------------------------------------------------| ini standartnya
D|-----------7-6-------------7-6-------------7-6--6--6--6--|
A|7--7--7---------7--7--7---------7--7--7---------7--7--7--|
E|---------7---------------7---------------7---------------|

 B
e|------------------------------------------------------------------------|
B|------------------------------------------------------------------------|
G|------------------------------------------------------------------------| > = hammer
D|-------------6>7>6----------------6>7>6----------------6>7>6---6--6--6--|
A|7--7--7----7-------7-7--7--7----7-------7-7--7--7----7-------7-7--7--7--|
E|---------7--------------------7--------------------7--------------------|
____________________________________________________________________________________
_____________________________________________________________________________________
 B
e|--------------------------------------------------------|
B|--------------------------------------------------------|
G|--------------------------------------------------------|
D|4----2-4----2-----------2---4----2-4----2-----------2---| ini standartnya
A|---4------4---4----2-4----4----4------4---4----2-4----4-|
E|-----------------4---------------------------4----------|

 B
e|----------------------------------------------------------------|
B|----------------------------------------------------------------|
G|----------------------------------------------------------------| / : up & down picking
D|4/4---2-4/4---2-------------2---4/4---2-4/4---2-------------2---| 
A|----4-------4---4/4---2-4/4---4-----4-------4---4/4---2-4/4---4-|
E|--------------------4-------------------------------4-----------|
___________________________________________________________________
___________________________________________________________________
___________________________________________________________________




TEHNIK..

untuk Lead

 L
e|--------------------------------7-7---7--------------------------|
B|9-9-7-9-----------5-7-9-7-5-7-9-----9-------------5-7-9-7-5-7-5--| ini standartnya
G|-----------------------------------------------------------------|
D|-----------------------------------------------------------------|
A|-----------------------------------------------------------------|
E|-----------------------------------------------------------------|

 L
e|--------------------------------7-7---7--------------------------|
B|9-9~7~9-----------5~7~9~7~5~7~9-----9-------------5~7~9~7~5~7~5--| ~ = slide..
G|-----------------------------------------------------------------|
D|-----------------------------------------------------------------|
A|-----------------------------------------------------------------|
E|-----------------------------------------------------------------|

hampir semua tab untuk L menggunakan tehnik Slide, contoh lain..

L
e|-----------------------------------------------------------------|
B|----------------------5-9-7-5---9-9-7-9-----------5-7-9-7-5-7-9--| ini standartnya
G|6-6-4-6-----------4-6---------6----------------------------------|
D|-----------------------------------------------------------------|
A|-----------------------------------------------------------------|
E|-----------------------------------------------------------------|

L
e|-----------------------------------------------------------------|
B|----------------------5~9~7~5---9-9~7~9-----------5~7~9~7~5~7~9--| ~ = slide..
G|6-6~4~6-----------4~6---------6----------------------------------|
D|-----------------------------------------------------------------|
A|-----------------------------------------------------------------|
E|-----------------------------------------------------------------|



TEHNIK..

untuk RHYTM

kebanyakan tab rhytm di sini membutuhkan feel dalam tehnik muffled strings.

Muffled string : letakkan jari dengan tanpa menekan terlalu kuat pada 
fretboard sehingga menghasilkan sound percussive

atau kalo bahasa sehari-harinya 'kocokan' gitarnya harus bagus hehe..


                                                         SELAMAT MENCOBA!!!
Suggest correction
comments
print report bad tab
guest
You may want to rate the tab now too:
select rating
Please do not post tabs as comments. Select "correction" instead!