Oops, an error
Loading. Please wait.

Paranoid Freak chords

version 1
version 1

Whole song

Interactive

7,105 views 3 this week
6 commentsread comments
1 2 3 4 5
x 3
add to favorites
×
Save as Personal and add changes to this tab that will be seen only by you. Learn more ›
×
You can save this tab as Personal to edit and correct it or add notes. All changes will be seen only by you. Learn more »
launch autoscroll
font size
0
reset
transpose
0
reset
display chords
guitar tuner
edit
Autoscroll
slow
fast
+/-
esc
set tempo
stop
Author
Difficulty
Strumming
There is no strumming pattern for this song yet. and get +5 IQ
The Trews
Paranoid Freak
Tabbed by KaylasWasted.com
---

Intro

B  B  D  D  A  A  E  E  B (pause)
B  B  D  D  A  A  E  E  B (pause)

B  B  D  D  A  A  E  E  B  B

B
Hey sing a bad song
Get it stuck in your head
I'm singing along

D            A
Can't help it

B
Kids starting to whine
Exploding my mind
Satan get me behind

D           A
I'm saturated

E
It's closing in on me

              D
It's closing in on me

          A
It's closing in


B               D      A
If you see something don't

E
Say something to me

B               D      A
I'm a paranoid freak

E
Already


B        D           
I'm a man on the brink

A                E
I've had too much to think

B            D      A 
I'm a paranoid freak

E
Already


Interlude

B  B  D  D  A  A  E  E  
B  B  D  D  A  A  E  E  


B
Joe, Average guy
Needs more things to buy
Spoon feed me a lie

D         A
I'll eat it

B
I'm on a bad trip
Too many loose lips
All rocking my ship

D      E
I'm sinking


E              
It's closing in on me

              D
It's closing in on me

      A
It's closing in


B               D
If you see something don't

A                 E
Say something to me

B               D    A
I'm a paranoid freak

E
Already

B               D
I'm surrounded by freaks

A               E
Closing in on me

B                 D
I'm a paranoid freak

A     E
Already

B                 D    A
If you see something don't

E
Say something to me.

B            D   A
I'm a paranoid freak

E
I'm a paranoid freak

D          A            E
Ahhhhhhhhhhh

D                  A
Is this freedom information

E
Or is this mass intimidation


Interlude

B   E  (repeat)


B
In the land of the free
Stand on god above me
I'm a vigilante

D           A
I'm captivated


B  D  A  E (repeat rest of song)

If you see something don't
Say something to me
I'm a paranoid freak
Already
I'm a man on the brink
Give me something to treat
I'm a paranoid freak
Alright
If you see something dont
say something to me
I'm a paranoid freak (x 10)

            
            
Suggest correction
Creating personal tab
Creating personal tab
You can edit any tab online and save it as your Personal.

You can edit, replace or remove any tab part or add personal notes – all changes will be seen only by you.

Personal tabs can be accessed anytime from any device, even offline.
Learn more »
Give kudos to tab author, rate the tab!
1 2 3 4 5
comments
print report bad tab
6 comments total. Showing first comments.
0 reply
1122maclnath 10 Jul 12, 2008 09:02 AM

Song - Gun Control
Artist - The Trews
Album - No Time For Later
Tuning - Drop D

( ) - you dont actually have to play this note but let it ring
/ - slide up
\ - slide down
pm - palm mute

Intro/Chorus
E|----------------------------------------------------|
B|-3-3-(3)-(3)-3-3-3-3-3-3-3-3------------------------|
G|-2-2-(2)--2--2-2-2-2-0-0-x-2-------------------3-/5-|
D|-0-0------0--3-3-0-3-----3-0--3-3-0-3-5-5-3-0--3-/5-|
A|------3-----------------------3-3-0-3-5-5-3-0-------|
D|------------------------------3-3-0-3-5-5-3-0-------|

E|---------------------------------------------------|
B|-3-3-(3)-(3)-3-3-3-3-3-3-3-3--1-/3-----------------|
G|-2-2-(2)--2--2-2-2-2-0-0-x-2---------------7-7-5-2-|
D|-0-0------0--3-3-0-3-----3-0-------3-3-0-3-5-5-3-0-|
A|------3----------------------------3-3-0-3-5-5-3-0-|
D|-----------------------------------3-3-0-3-5-5-3-0-|

Verse
E|----------------------------------|-------------------|
B|----------------------------------|-------------------|
G|----------------------------------|*-----------------*|
D|-3-3-0-3-5-5-3-0--0-0-0-0-0-0-12\-|--0-0-0-0-0-0-0-0--|
A|-3-3-0-3-5-5-3-0--0-0-0-0-0-0-12\-|*-0-0-0-0-0-0-0-0-*|
D|-3-3-0-3-5-5-3-0--0-0-0-0-0-0-12\-|--0-0-0-0-0-0-0-0--|

pm . . . . . . . . . . . . . .

E|-----------------|
B|-----------------|
G|-----------------| 3 times
D|-------5-5-3-2-0-|
A|-------5-5-3-2-0-|
D|-0-2-3-5-5-3-2-0-|

E|---------|
B|---------|
G|---------|
D|-------5-|
A|-------5-|
D|-0-2-3-5-|

or if you prefer

E|-----------------|
B|-----------------%

+1 reply
1122maclnath 10 Jul 12, 2008 09:03 AM

or if you prefer

E|-----------------|
B|-----------------|
G|-----------------|
D|-0-2-3-5-5-3-2-0-|
A|-0-2-3-5-5-3-2-0-|
D|-0-2-3-5-5-3-2-0-|

i did this because it wouldn't let me post this, so i hope you don't mind

0 reply
seanmacp 10 Jul 30, 2008 03:58 PM

are u sure gun control is in drop D

guest
You may want to rate the tab now too:
select rating
Wanna post a correction for this tab? Suggest correction