Oops, an error
Loading. Please wait.

Poor Ol Broken Hearted Me tab

version 1
version 1

Whole song

13,645 views 18 this week
4 commentsread comments
1 2 3 4 5
x 4
add to favorites
×
Save as Personal and add changes to this tab that will be seen only by you. Learn more ›
×
You can save this tab as Personal to edit and correct it or add notes. All changes will be seen only by you. Learn more »
launch autoscroll
font size
0
reset
how to read this tab
guitar tuner
edit
Autoscroll
slow
fast
+/-
esc
set tempo
stop
Song: Poor Ol' Broken Hearted Me
Band: The Trews
Album: Den Of Thieves
Tabbed By: Joel Trottier
Email: joe_trottier@hotmail.com

This is my first attempt at tabbing. Any tips/suggestions are welcome.



Intro (Cowbell)
E||---------------------------------||
B||---------------------------------||
G||--------------------4-4-2--------|| X 4
D||--4-4-2-------------------4------||
A||--------4-------------------5b---||
E||----------5b---------------------||

Verse (Drums Beat Kick In)

E||---------------------------------||
B||---------------------------------||
G||--------------------4-4-2--------|| 
D||--4-4-2-------------------4------||
A||--------4-------------------5b---||
E||----------5b---------------------||

E||---------------------------------||
B||---------------------------------||
G||-------------------4-4-2---------|| 
D||--4-4-2------------------4-------||
A||--------4------------------5b-2--||
E||----------5b---------------------||




Chorus:
E||---------------------------------||
B||---------------------------------||
G||--4----2-------------------------||
D||--2----0--2----------------7-----||
A||----------0-----0h4-0--0h4-------||
E||---------------------------------||


E||---------------------------------||
B||---------------------------------||
G||---------------------------------||
D||---------------------------------||
A||--4----7--2----------------7-----||
E||--2----5--0-----0h4-0--0h4-------||



Verse:                                  _
E||---------------------------------||   |
B||---------------------------------||   |
G||--------------------4-4---4------||   |
D||--4-4-2-------------2-2---4------||   |
A||--------4------------------------||   |
E||----------5b---------------------||   |
                                         |
                                         | X 3
E||---------------------------------||   |
B||---------------------------------||   |
G||--4-4-2-------------4-4---3------||   |
D||--------4-----------4-4---4------||   |
A||----------5b---------------------||   |
E||---------------------------------||  _|


E||---------------------------------||   
B||---------------------------------||   
G||--------------------4-4---4------||   
D||--4-4-2-------------2-2---4------||   
A||--------4------------------------||   
E||----------5b---------------------||   
                                         
                                         
E||---------------------------------||   
B||---------------------------------||   
G||--4-4-2-------------4-4-2--------||   
D||--------4-----------------4------||   
A||----------5b----------------5b---||   
E||---------------------------------||



Chorus:
E||---------------------------------||
B||---------------------------------||
G||--4----2-------------------------||
D||--2----0--2----------------7-----||
A||----------0-----0h4-0--0h4-------||
E||---------------------------------||


E||---------------------------------||
B||---------------------------------||
G||---------------------------------||
D||---------------------------------||
A||--4----7--2----------------7-----||
E||--2----5--0-----0h4-0--0h4-------||



*This is where the Interlude / Solo comes in...



Then go back to the Verse:                                      _
                                        _
E||---------------------------------||   |
B||---------------------------------||   |
G||--------------------4-4---4------||   |
D||--4-4-2-------------2-2---4------||   |
A||--------4------------------------||   |
E||----------5b---------------------||   |
                                         |
                                         | X 2
E||---------------------------------||   |
B||---------------------------------||   |
G||--4-4-2-------------4-4---3------||   |
D||--------4-----------4-4---4------||   |
A||----------5b---------------------||   |
E||---------------------------------||  _|


*Vocals only with clapping


Then back to the chorus at higher octave:
E||---------------------------------||
B||--6----4-------------------------||
G||--4----2--4----------------4-----||
D||----------2-----0h1----0h2-------||
A||--------------------2------------||
E||---------------------------------||


E||---------------------------------||
B||---------------------------------||
G||---------------------------------||
D||-------4-------------------4-----||
A||--6----2--4-----0h1----0h1-------||
E||--4-------2---------2------------||


*Fades off playing this last verse and a solo in the background...





Suggest correction
Creating personal tab
Creating personal tab
You can edit any tab online and save it as your Personal.

You can edit, replace or remove any tab part or add personal notes – all changes will be seen only by you.

Personal tabs can be accessed anytime from any device, even offline.
Learn more »
comments
print report bad tab
4 comments total. Showing first comments.
0 reply
doompers7491 301 Apr 04, 2011 09:01 PM

great tab. doesnt have the solo but thats where improvising comes in

0 reply
jeromeleblanc1 14 May 30, 2017 05:38 PM, edited at 09:38 pm

If i can add my two cents.. you should be playing that at the early frets.... the 997 parts, so that the chords are easier to reach, E||---------------------------------||B||---------------------------------||G||--------------------4-4---4------||D||----4-4-2-----------2-2---4------||A||----------4----------------------||E||------------5b-------------------||E||---------------------------------||B||---------------------------------||G||----4-4-2-----------4-4---3------||D||----------4---------4-4---4------||A||------------5b-------------------||E||---------------------------------||And it sounds like he's sliding and not hammering on,but either way works if this is your first tab, you learned this by ear, it's overall good this interlude part, is e d a might be missing one chord in there that's the general sense

0 reply
jeromeleblanc1 14 May 30, 2017 05:39 PM

If i can add my two cents.. you should be playing that at the early frets.... the 997 parts, so that the chords are easier to reach,

E||---------------------------------||
B||---------------------------------||
G||--------------------4-4---4------||
D||----4-4-2-----------2-2---4------||
A||----------4----------------------||
E||------------5b-------------------||

E||---------------------------------||
B||---------------------------------||
G||----4-4-2-----------4-4---3------||
D||----------4---------4-4---4------||
A||------------5b-------------------||
E||---------------------------------||

And it sounds like he's sliding and not hammering on,but either way works if this is your first tab, you learned this by ear, it's overall good this interlude part, is e d a might be missing one chord in there that's the general sense

guest
You may want to rate the tab now too:
select rating
Wanna post a correction for this tab? Suggest correction