Oops, an error
Loading. Please wait.

So Shes Leaving tab

version 1
version 1

Whole song

Interactive

8,369 views 6 this week
4 commentsread comments
1 2 3 4 5
x 10
add to favorites
×
Save as Personal and add changes to this tab that will be seen only by you. Learn more ›
×
You can save this tab as Personal to edit and correct it or add notes. All changes will be seen only by you. Learn more »
launch autoscroll
font size
0
reset
how to read this tab
guitar tuner
edit
Autoscroll
slow
fast
+/-
esc
set tempo
stop
Author
This File is the Authors own personal redition of how the song is played, you may use it 
your own private study. Tabbed by Matthew (putty)

So She’s Leaving - The Trews - Den of Thieves 2005

e---------------------------------------------|
b---------------------------------------------|
g---------------------------------------------|
D---------------------------------------------|
A------4-5--4h5s12-12----------4-5-4h5-4------|
E--3-5---------------------3-5------------5-5-|

Verse – G-slide-A
Chorus – A/G/D/A
No Solo Sorry Just improvise it!
End Riff

e---------------------------------------------|
b---------------------------------------------|
g---------------------------------------------|
D---------------------------------------------|
A------4-5--4h5s12-12----------4-5-4h5-4------|
E--3-5---------------------3-5------------5-5-|

e--------------------------------------------|
b--------------------------------------------|
g------------------------------6h7-6h7-6-----|
D--------------------------5h6-----------7-7-|
A------4-5--4h5s12-12------------------------|
E--3-5---------------------------------------|
Suggest correction
Creating personal tab
Creating personal tab
You can edit any tab online and save it as your Personal.

You can edit, replace or remove any tab part or add personal notes – all changes will be seen only by you.

Personal tabs can be accessed anytime from any device, even offline.
Learn more »
comments
print report bad tab
4 comments total. Showing first comments.
0 reply
PUNK_JB_96 37 Sep 27, 2005 04:56 PM

Pretty good tab but i think the chorus might be wrong ulness i'm mistaken about the chords but everything else is great

0 reply
yoyojoe 281 Sep 27, 2005 05:44 PM

wow...not even a rhythem guitar. (its A,G,D,A) and the solos lead up is:
|----------------------------------|
|----------------------------------|
|-14-14-14-14-12-12-12-12-11-11-11-|
|-14-14-14-14-12-12-12-12-11-11-11-|
|-12-12-12-12-10-10-10-10-9--9--9--|
|----------------------------------|

|----------------------------------|
|----------------------------------|
|-14-14-14-14-12-12-12-12----------|
|-14-14-14-14-12-12-12-12----------|
|-12-12-12-12-10-10-10-10-9~~~~~~--|
|----------------------------------|

Then the solo is in D major (fairly simple to improvise and get something close to the real thing) otherwise this is an awsome song, what little you have here looks good

0 reply
putty 93 Oct 02, 2005 06:39 AM

If you read the tab closer you would have seen that it says "chorus" A,G,D,A which is obviouisly the same as the rythem.

guest
You may want to rate the tab now too:
select rating
Wanna post a correction for this tab? Suggest correction