Oops, an error
Loading. Please wait.

Do You Want Me Near You Bass Tab

10 views 1 this week
no commentswrite comment
1 2 3 4 5
3 more votes to show rating
add to favorites
launch autoscroll
font size
0
reset
guitar tuner
Autoscroll
slow
fast
+/-
esc
set tempo
stop
Help us to improve Ultimate-Guitar.com Take our survey!
×
Author
Difficulty
novice
Bass Start - 00:03


[Intro]

G|-------------|-------------|-------------|-------------|
D|-------------|-------------|-------------|-------------|
A|--6----------|-------------|--6----------|-------------|
E|------6---8--|--9---8---6--|------6---8--|--9---8---6--|


G|-------------------|-------------------| (x2)
D|-8-10-8------------|------------8----8-|
A|--------10--8-10-8-|-6--8-8/10----10---|
E|-------------------|-------------------|


[Verse 1]

G|-------------------|-------------------| (x4)
D|-8-10-8------------|------------8----8-|
A|--------10--8-10-8-|-6--8-8/10----10---|
E|-------------------|-------------------|


G|-8-10-8------------|------------8----8-|-8-10-8------------|-----------------|
D|--------10--8-10-8-|-6--8-8/10----10---|--------10--8-10-8-|-6--8-8/10--8-6--|
A|-------------------|-------------------|-------------------|-----------------|
E|-------------------|-------------------|-------------------|-----------------|


G|----------------|----------------|-------------|-------------|
D|----------------|----------------|-------------|-------------|
A|--6-------------|--4-------------|-------------|--4---4---4--|
E|----------------|----------------|--4---4---4--|-------------|


[Chorus]

G|-------------|--------------|----------------|----------------|
D|-------------|--------------|----------------|----------------|
A|--6---6---6--|--------------|----------------|--13---13---13--|
E|-------------|--6---6---6/--|--11---11---11--|----------------|


G|----------------|----------------|------------------|-----------------|
D|----------------|----------------|------------------|-----------------|
A|----------------|--11---11---11--|--10-8----10-8----|-10-8----10-8-10-|
E|--11---11---11--|----------------|-------10------10-|------10---------|


G|----------------|----------------|
D|----------------|----------------|
A|-11-------------|----------------|
E|----------------|--9-------------|


[Interlude]

G|-------------------|-------------------| (x2)
D|-8-10-8------------|------------8----8-|
A|--------10--8-10-8-|-6--8-8/10----10---|
E|-------------------|-------------------|


[Verse 2]

G|-------------------|-------------------| (x4)
D|-8-10-8------------|------------8----8-|
A|--------10--8-10-8-|-6--8-8/10----10---|
E|-------------------|-------------------|


G|-8-10-8------------|------------8----8-|-8-10-8------------|-----------------|
D|--------10--8-10-8-|-6--8-8/10----10---|--------10--8-10-8-|-6--8-8/10--8-6--|
A|-------------------|-------------------|-------------------|-----------------|
E|-------------------|-------------------|-------------------|-----------------|


G|----------------|----------------|-------------|-------------|
D|----------------|----------------|-------------|-------------|
A|--6-------------|--4----------3--|-------------|--4---4---4--|
E|----------------|----------------|--4---4---4--|-------------|


[Chorus]

G|-------------|-------------|-------------|-------------|
D|-------------|-------------|-------------|--8---8---8--|
A|--6---6---6--|-------------|--6---6---6--|-------------|
E|-------------|--6---6---6--|-------------|-------------|


G|-------------|-------------|--------------|-------------|
D|-------------|--6---6---6--|--5-3---5-3---|-5-3---5-3-5-|
A|--6---6---6--|-------------|------5-----5-|-----5-------|
E|-------------|-------------|--------------|-------------|


G|----------------|----------------|
D|-6--------------|----------------|
A|----------------|--4-------------|
E|----------------|----------------|


[Instrumental]

G|----------------|----------------|-------------|----------------|
D|----------------|----------------|-------------|----------------|
A|--6-------------|----------6-----|--6---6---6--|--6-------------|
E|----------------|----------------|-------------|----------------|


G|-------------|-------------|-------------|-------------| (x4)
D|-------------|-------------|-------------|-------------|
A|--6---6---6--|--6---6---6--|--6---6---6--|--6---6---6--|
E|-------------|-------------|-------------|-------------|


[Verse 3]

G|-------------------|-------------------| (x3)
D|-8-10-8------------|------------8----8-|
A|--------10--8-10-8-|-6--8-8/10----10---|
E|-------------------|-------------------|


G|-------------------|-------------------| 
D|-8-10-8------------|------------8------|
A|--------10--8-10-8-|-6--8-8/10----10-8-|
E|-------------------|-------------------|


[Chorus]

G|------------|--------------|----------------|----------------|
D|------------|--------------|----------------|----------------|
A|-6---6---6--|--------------|----------------|--13---13---13--|
E|------------|--6---6---6/--|--11---11---11--|----------------|


G|----------------|----------------|------------------|-----------------|
D|----------------|----------------|------------------|-----------------|
A|----------------|--11---11---11--|--10-8----10-8----|-10-8----10-8-10-|
E|--11---11---11--|----------------|-------10------10-|------10---------|


G|----------------|----------------|
D|----------------|----------------|
A|-11-------------|----------------|
E|----------------|--9-------------|


[Outro]

G|----------------|----------------|----------------|----------------| (x2)
D|----------------|----------------|----------------|----------------|
A|--6-------------|--6-------------|--6-------------|--6-------------|
E|----------------|----------------|----------------|----------------|

  (repeat until the end)
G|-------------|-------------|-------------|-------------| 
D|-------------|-------------|-------------|-------------|
A|--6----------|-------------|--6----------|-------------|
E|------6---8--|--9---8---6--|------6---8--|--9---8---6--|



*******************************

| / : slide up

*******************************

in regular sequence!
Suggest correction
Give kudos to tab author, rate the tab!
1 2 3 4 5
comments
print report bad tab
guest
You may want to rate the tab now too:
select rating
Wanna post a correction for this tab? Suggest correction