Oops, an error
Loading. Please wait.

Embedded Bass Tab

7 views 1 this week
no commentswrite comment
1 2 3 4 5
3 more votes to show rating
add to favorites
launch autoscroll
font size
0
reset
guitar tuner
Autoscroll
slow
fast
+/-
esc
set tempo
stop
Help us to improve Ultimate-Guitar.com Take our survey!
×
Author
Difficulty
novice
Bass Start - 00:14


[Verse 1]
G|--------------------|----------------------| (x2)
D|--------------------|----------------------|
A|-2---2-------------4|-5---5-4-5-7-7-7-7-5-4|
E|-------2-1-0---0-0--|----------------------|

G|------------------|-----------------|------------------|-----------------|
D|------------------|-----------------|------------------|-----------------|
A|---------0---2----|-----1---2---4---|---------0---2----|-----1---2---4--2|
E|-0---3---------0-3|-2--------------3|-0---3---------0-3|-2---------------|

G|-----------------|-----3---4---6--\|
D|-2---4---5---7--5|-4---------------|
A|-----------------|-----------------|
E|-----------------|-----------------|

[Chorus]
G|------------|------------|-2-2-2-1-1-1|------------|
D|---4-4---4-4|---4-4---4-4|------------|-4-4-4-2-2-4|
A|-2-----2----|-2-----2----|------------|------------|
E|------------|------------|------------|------------|

G|------------|------------|-2-2-2-1-1-1|------------|
D|---4-4---4-4|---4-4---4-4|------------|-4-4-4-2-2-0|
A|-2-----2----|-2-----2----|------------|------------|
E|------------|------------|------------|------------|

G|-------------------|-------------------|-------------------|-------------------|
D|-2-----------------|-2-----------------|-2-----------------|-2-----------------|
A|---------2---/5--\2|---------2---/5--\2|---------2---/5--\2|---------2---/5-0-4|
E|-----0-------------|-----0-------------|-----0-------------|-----0-------------|

[Verse 2]
G|---------------------|----------------------| 
D|---------------------|----------------------|
A|-2--2-2-------------4|-5---5-4-5-7-7-7-7-5-4|
E|--------2-1-0---0-0--|----------------------|

G|---------------------|----------------------| 
D|---------------------|----------------------|
A|-2--2-2-----------7-6|-5---5-4-5-7-7-7-7-5-4|
E|--------2-1-0---0----|----------------------|

G|------------------|------------------|------------------|------------------|
D|------------------|------------------|------------------|------------------|
A|---------0---2----|-----1---2---/4---|---------0---2----|-----1---2---/4--2|
E|-0---3---------0-3|-2---------------3|-0---3---------0-3|-2----------------|

G|-----------------|-----3---4---6--\|
D|-2---4---5---7--5|-4---------------|
A|-----------------|-----------------|
E|-----------------|-----------------|

[Chorus]
G|------------|------------|-2-2-2-1-1-1|------------|
D|---4-4---4-4|---4-4---4-4|------------|-4-4-4-2-2-4|
A|-2-----2----|-2-----2----|------------|------------|
E|------------|------------|------------|------------|

G|------------|------------|-2-2-2-1-1-1|------------|
D|---4-4---4-4|---4-4---4-4|------------|-4-4-4-2-2-0|
A|-2-----2----|-2-----2----|------------|------------|
E|------------|------------|------------|------------|

G|-------------------|-------------------|-------------------|--------------------|
D|-2-----------------|-2-----------------|-2-----------------|--------------------|
A|---------2---/5--\2|---------2---/5--\2|---------2---/5-0-4|-/7-------2---/5-0-6|
E|-----0-------------|-----0-------------|-----0-------------|------0-------------|

G|------------|------------|------------|------------| (x2)
D|------------|------------|------------|------------|
A|-7-7-7-7-7-7|-7-7-7-7-5-5|-7-7-7-7-7-7|-7-7-7-7-5-5|
E|------------|------------|------------|------------|

G|------------|------------|------------|------------| (x2)
D|------------|------------|------------|------------|
A|------------|------------|------------|------------|
E|-0-0-0-0-0-0|-0-0-0-0-0-0|-0-0-0-0-0-0|-0-0-0-0-0-0|

[Verse 3]
G|--------------------|----------------------| 
D|--------------------|----------------------|
A|-2---2-------------4|-5---5-4-5-7-7-7-7-5-4|
E|-------2-1-0---0-0--|----------------------|

G|--------------------|----------------------| 
D|--------------------|----------------------|
A|-2---2-----------7-6|-5---5-4-5-7-7-7-7-5-4|
E|-------2-1-0---0----|----------------------|

G|------------------|------------------|------------------|------------------|
D|------------------|------------------|------------------|------------------|
A|---------0---2----|-----1---2---/4---|---------0---2----|-----1---2---/4--2|
E|-0---3---------0-3|-2---------------3|-0---3---------0-3|-2----------------|

G|------------------|-----3---4---6--\|
D|-2---4---5---/7--5|-4---------------|
A|------------------|-----------------|
E|------------------|-----------------|

[Chorus]
G|------------|------------|-2-2-2-1-1-1|------------|
D|---4-4---4-4|---4-4---4-4|------------|-4-4-4-2-2-4|
A|-2-----2----|-2-----2----|------------|------------|
E|------------|------------|------------|------------|

G|------------|------------|-2-2-2-1-1-1|------------|
D|---4-4---4-4|---4-4---4-4|------------|-4-4-4-2-2-4|
A|-2-----2----|-2-----2----|------------|------------|
E|------------|------------|------------|------------|

G|------------|------------|------------|------------|
D|---4-4---4-4|---2-2---2-2|---4-4---4-4|---2-2---2-0|
A|-2-----2----|-0-----0----|-2-----2----|-0-----0----|
E|------------|------------|------------|------------|

G|-------------------|-------------------|--------------------|-------------------|
D|-2-----------------|-2-----------------|--------------------|-2-----------------|
A|---------2---/5--\2|---------2---/5-0-4|-/7-------2---/5--\2|---------2---/5--\2|
E|-----0-------------|-----0-------------|------0-------------|-----0-------------|

[Outro]
G|------------|------------|------------| (x2)
D|------------|------------|------------|
A|------------|------------|------------|
E|-0-0-0-0-0-0|-0-0-0-0-0-0|-0-0-0-0-0-0|
                    
G|--------------|--------------|
D|-4------4-----|-4------4-----|
A|--------------|--------------|
E|--------------|--------------|



*************************

| / slide up
| \ slide down

*************************
Suggest correction
Give kudos to tab author, rate the tab!
1 2 3 4 5
comments
print report bad tab
guest
You may want to rate the tab now too:
select rating
Wanna post a correction for this tab? Suggest correction