Oops, an error
Loading. Please wait.

Estuary Bed Bass Tab

13 views 1 this week
no commentswrite comment
1 2 3 4 5
3 more votes to show rating
add to favorites
launch autoscroll
font size
0
reset
guitar tuner
Autoscroll
slow
fast
+/-
esc
set tempo
stop
Help us to improve Ultimate-Guitar.com Take our survey!
×
Author
Difficulty
novice
[Verse 1]
G|----------9--|----------9--|----------9--|----------9--| 
D|------7------|------7------|------9------|------9------|
A|--0----------|--0----------|--7----------|--7----------|
E|-------------|-------------|-------------|-------------|

G|----------9--|----------9--|----------9--|-------------| 
D|------7------|------7------|------9------|------9------|
A|--0----------|--0----------|--7----------|--7-------7\-|
E|-------------|-------------|-------------|-------------|

G|----------------|----------------|----------------|----------------|
D|----------------|----------------|----------------|----------------|
A|-5--------------|----------------|--5-------------|----------------|
E|----------------|--5-------------|----------------|--5-------------|

G|----------------|----------------|---------------|
D|----------------|----------------|-------9---11\-|
A|----------------|----------------|--11-----------|
E|--0-------------|----------------|---------------|

[Verse 2]
G|-----9---9--|------9---9--|-------------|-------------|
D|-7----------|--7----------|------9---9--|------9---9--|
A|------------|-------------|--7----------|--7----------|
E|------------|-------------|-------------|-------------|

G|-----9---9--|------9---9--|-------------|-------------|
D|-7----------|--7----------|------9---9--|------9------|
A|------------|-------------|--7----------|--7-------7\-|
E|------------|-------------|-------------|-------------|

G|----------------|----------------|----------------|----------------|---------------|
D|----------------|----------------|----------------|----------------|-------9---11\-|
A|-5--------------|----------------|----------------|----------------|--11-----------|
E|----------------|--5-------------|--0---0---------|----------------|---------------|

[Chorus] 
G|-----6-------------------|-----6-------------------|-----6-------------------|
D|-7------7--------9---11\-|-7------7--------9---11\-|-7------7--------9---11\-| 
A|-----------9-7-----------|-----------9-7-----------|-----------9-7-----------| -| 
E|-------------------------|-------------------------|-------------------------|  |
                                                                                  |                      
G|----------------|---------------|                                               | (x2)
D|----------------|-------9---11\-|                                               |
A|-7--------------|--11-----------| ----------------------------------------------|
E|----------------|---------------|

G|-----6-------------------|-----6-------------------|-----6-------------------| (x2)
D|-7------7--------9---11\-|-7------7--------9---11\-|-7------7--------9---11\-|
A|-----------9-7-----------|-----------9-7-----------|-----------9-7-----------|
E|-------------------------|-------------------------|-------------------------|

[Verse 3]
G|-----9--9----------------| (x9)
D|-7---------9-----9--9----|
A|-------------7---------7-|
E|-------------------------|

G|-----9--9----------------| 
D|-7---------9-----9--9----|
A|-------------7--------7\-|
E|-------------------------|

G|----------------|----------------|----------------|----------------|
D|----------------|----------------|----------------|----------------|
A|-5--------------|----------------|--5-------------|----------------|
E|----------------|--5-------------|----------------|--5-------------|

G|----------------|----------------|----------------|---------------|
D|----------------|----------------|----------------|-------9---11\-|
A|-5--------------|----------------|----------------|--11-----------|
E|----------------|--5-------------|--0-------------|---------------|

[Chorus] 
G|-----6-------------------|-----6-------------------|-----6-------------------|
D|-7------7--------9---11\-|-7------7--------9---11\-|-7------7--------9---11\-| 
A|-----------9-7-----------|-----------9-7-----------|-----------9-7-----------| -| 
E|-------------------------|-------------------------|-------------------------|  |
                                                                                  |                      
G|----------------|---------------|                                               | (x2)
D|----------------|-------9---11\-|                                               |
A|-7--------------|--11-----------| ----------------------------------------------|
E|----------------|---------------|

G|-----6-------------------|-----6-------------------|-----6-------------------| (x2)
D|-7------7--------9---11\-|-7------7--------9---11\-|-7------7--------9---11\-|
A|-----------9-7-----------|-----------9-7-----------|-----------9-7-----------|
E|-------------------------|-------------------------|-------------------------|

[Outro]
G|-----9--9----------------| (x6)
D|-7---------9-----9--9----|
A|-------------7---------7-|
E|-------------------------|

G|----------------|----------------| (x5)
D|----------------|----------------|
A|----------------|----------------|
E|-5--------------|--0-------------|

G|----6----6-9----|-----------|-----6-----------------|
D|--7----7------7-|-----------|-7------7--------9---\-|
A|----------------|-----7---\-|-----------9-7---------|
E|----------------|-0---------|-----------------------|

G|-----6-------------------|-----6-------------------|-----6-------------------|----|
D|-7------7--------9---11\-|-7------7--------9---11\-|-7------7--------9---11\-|-7--|
A|-----------9-7-----------|-----------9-7-----------|-----------9-7-----------|----|
E|-------------------------|-------------------------|-------------------------|----|


************************************

| \  Slide down

************************************
Suggest correction
Give kudos to tab author, rate the tab!
1 2 3 4 5
comments
print report bad tab
guest
You may want to rate the tab now too:
select rating
Wanna post a correction for this tab? Suggest correction