Oops, an error
Loading. Please wait.

Hanging Shed Bass Tab

10 views 1 this week
no commentswrite comment
1 2 3 4 5
3 more votes to show rating
add to favorites
launch autoscroll
font size
0
reset
guitar tuner
Autoscroll
slow
fast
+/-
esc
set tempo
stop
Help us to improve Ultimate-Guitar.com Take our survey!
×
Author
Difficulty
novice
(Bass Start)
(00:10)

[Intro]
G|--------|----------------|----------------|----------------|----------------|
D|--------|----------------|----------------|----------------|----------------|
A|--------|----7-7-\-----2-|----7-7-\-----2-|----7-7-\-----2-|----7-7-\-----2-|
E|-1/7--7-|-0--------0-3---|-0--------0-3---|-0--------0-3---|-0--------0-3---|

G|----------------|----------------|----------------|----------------|
D|----------------|----------------|----------------|----------------|
A|----7-7-\-----2-|----7-7-\-----2-|----7-7-\-----2-|----7-7-\-----2-|
E|-0--------0-3---|-0--------0-3---|-0--------0-3---|-0--------0-3---|

[Verse 1]
G|----------------|----------------|----------------|----------------| (x2)
D|----------------|----------------|----------------|----------------|
A|----7-7-\-----2-|----7-7-\-----2-|----7-7-\-----2-|----7-7-\-----2-|
E|-0--------0-3---|-0--------0-3---|-0--------0-3---|-0--------0-3---|

[Chorus]
G|----------------------------|--------------0-5-4-----------|
D|----------------------------|-4h5p4-2--2-4-------5-2---2-4-|
A|-5--5-5--5-3-4-5--5-5--5--5-|------------------------------|
E|----------------------------|------------------------------|

G|-------------|--------------|---------------|---------------|
D|-5---5--5--5-|-4---3--3-2-2-|---------------|---------------|
A|-------------|--------------|-----7-\-----2-|-----7-\-----2-|
E|-------------|--------------|-0-------0-3---|-0-------0-3---|

[Interlude]
G|----------------|----------------|----------------|----------------|
D|----------------|----------------|----------------|----------------|
A|----7-7-\-----2-|----7-7-\-----2-|----7-7-\-----2-|----7-7-\-----2-|
E|-0--------0-3---|-0--------0-3---|-0--------0-3---|-0--------0-3---|

[Verse 2]
G|----------------|----------------|----------------|----------------| (x2)
D|----------------|----------------|----------------|----------------|
A|----7-7-\-----2-|----7-7-\-----2-|----7-7-\-----2-|----7-7-\-----2-|
E|-0--------0-3---|-0--------0-3---|-0--------0-3---|-0--------0-3---|

[Chorus]
G|-----------------------------|--------------0-5-4-----------|
D|-----------------------------|-4h5p4-2--2-4-------5-2---2-4-|
A|-5--5-5--5-3-4-5--5-5--5-5-5-|------------------------------|
E|-----------------------------|------------------------------|

G|-------------|--------------|---------------|---------------|
D|-5---5--5--5-|-4---3--3-2-2-|---------------|---------------|
A|-------------|--------------|-----7-\-----2-|-----7-\-----2-|
E|-------------|--------------|-0-------0-3---|-0-------0-3---|

[Bridge]
G|---------------|---------------|---------------|---------------|
D|-------------5-|-------------5-|-------------5-|-------------5-|
A|----7-\----3---|----7-\----3---|----7-\----3---|----7-\----3---|
E|-0-------0-----|-0-------0-----|-0-------0-----|-0-------0-----|

G|-----------------|-----------------|-----------------|-----------------|
D|-----------------|-----------------|-----------------|-----------------|
A|-----------------|-5-5-5-5-5-5-5-5-|-----------------|-----------------|
E|-5-5-5-5-5-5-5-5-|-----------------|-7-7-7-7-7-7-7-7-|-7-5-7-5-7-5-7-5-|

G|-----------------|-----------------|---------------|---------------|
D|-----------------|-----------------|-------------5-|---------------|
A|-----------------|-5---5---5---5---|----7-\----3---|----7-\------0-|
E|-8-7-8-7-8-7-8-7-|---7---7---7---7-|-0-------0-----|-0-------0-8---|

G|-----------------|-----------------|---------------|---------------|
D|-----------------|-----------------|-------------5-|---------------|
A|-----------------|-5---5---5---5-7-|----7-\----3---|----7-\------0-|
E|-8-7-8-7-8-7-8-7-|---7---7---7-----|-0-------0-----|-0-------0-8---|

G|-----------------|-----------------|---------------|---------------|
D|-----------------|-----------------|-------------5-|---------------|
A|-----------------|-5---5---5---5---|----7-\----3---|----7-\------0-|
E|-8-7-8-7-8-7-8-7-|---7---7---7---7-|-0-------0-----|-0-------0-8---|

G|-----------------|-----------------|
D|-----------------|-----------------|
A|-----------------|-5---5---5---5---|
E|-8-7-8-7-8-7-8-7-|---7---7---7---7-|

G|-------------9--|-----------12------|-------------9--|-----------12------| (x2) 
D|------7h9--9----|--9-----10----10-\-|------7h9--9----|--9-----10----10-\-|
A|-7--7-----------|-------------------|-7--7-----------|-------------------|
E|----------------|-----10------------|----------------|-----10------------|

[Verse 3]
G|----------------|----------------|----------------|----------------| (x2)
D|----------------|----------------|----------------|----------------|
A|----7-7-\-----2-|----7-7-\-----2-|----7-7-\-----2-|----7-7-\-----2-|
E|-0--------0-3---|-0--------0-3---|-0--------0-3---|-0--------0-3---|

[Chorus]
G|----------------------------|--------------0-5-4-----------|
D|----------------------------|-4h5p4-2--2-4-------5-2---2-4-|
A|-5--5-5--5-3-4-5--5-5--5--5-|------------------------------|
E|----------------------------|------------------------------|

G|-------------|--------------|---------------|---------------|
D|-5---5--5--5-|-4---3--3-2-2-|---------------|---------------|
A|-------------|--------------|-----7-\-----2-|-----7-\-----2-|
E|-------------|--------------|-0-------0-3---|-0-------0-3---|

[Bridge]
G|---------------|---------------|---------------|---------------|
D|-------------5-|-------------5-|-------------5-|-------------5-|
A|----7-\----3---|----7-\----3---|----7-\----3---|----7-\----3---|
E|-0-------0-----|-0-------0-----|-0-------0-----|-0-------0-----|

G|-----------------|-----------------|-----------------|-----------------|
D|-----------------|-----------------|-----------------|-----------------|
A|-----------------|-5-5-5-5-5-5-5-5-|-----------------|-----------------|
E|-5-5-5-5-5-5-5-5-|-----------------|-7-7-7-7-7-7-7-7-|-7-5-7-5-7-5-7-5-|

G|-----------------|-----------------|---------------|---------------|
D|-----------------|-----------------|-------------5-|---------------|
A|-----------------|-5---5---5---5---|----7-\----3---|----7-\------0-|
E|-8-7-8-7-8-7-8-7-|---7---7---7---7-|-0-------0-----|-0-------0-8---|

G|-----------------|-----------------|---------------|---------------|
D|-----------------|-----------------|-------------5-|---------------|
A|-----------------|-5---5---5---5-7-|----7-\----3---|----7-\------0-|
E|-8-7-8-7-8-7-8-7-|---7---7---7-----|-0-------0-----|-0-------0-8---|

G|-----------------|-----------------|---------------|---------------|
D|-----------------|-----------------|-------------5-|---------------|
A|-----------------|-5---5---5---5-7-|----7-\----3---|----7-\------0-|
E|-8-7-8-7-8-7-8-7-|---7---7---7-----|-0-------0-----|-0-------0-8---|

G|-----------------|-----------------|
D|-----------------|-----------------|
A|-----------------|-5---5---5---5---|
E|-8-7-8-7-8-7-8-7-|---7---7---7---7-|

[Outro]
G|-------------9--|-----------12------|-------------9--|-----------12------| 
D|------7h9--9----|--9-----10----10-\-|------7h9--9----|--9-----10----10-\-|
A|-7--7-----------|-------------------|-7--7-----------|-------------------|
E|----------------|-----10------------|----------------|-----10------------|

G|-------------9--|-----------12------|----|
D|------7h9--9----|--9-----10----10-\-|----|
A|-7--7-----------|-------------------|-7--|
E|----------------|-----10------------|----|


************************************

| \  Slide down
| /  Slide up
| h  Hammer-on
| p  Pull-off

************************************
Suggest correction
Give kudos to tab author, rate the tab!
1 2 3 4 5
comments
print report bad tab
guest
You may want to rate the tab now too:
select rating
Wanna post a correction for this tab? Suggest correction