Oops, an error
Loading. Please wait.

Place In The Sun Bass Tab

22 views 1 this week
no commentswrite comment
1 2 3 4 5
3 more votes to show rating
add to favorites
launch autoscroll
font size
0
reset
guitar tuner
Autoscroll
slow
fast
+/-
esc
set tempo
stop
Help us to improve Ultimate-Guitar.com Take our survey!
×
Author
Difficulty
novice
[Verse 1]

G|----------------|----------------|-----------------|----------------|
D|----------------|----------------|-----------------|----------------|
A|----2-5-2-0-----|----------------|-----2-5-2-0-----|----------------|
E|-3----------3-2-|-0--------------|--3----------3-2-|-0--------------|


G|----------------|----------------|-----------------|----------------|
D|----------------|----------------|-----------------|-2--------------|
A|----2-5-2-0-----|----------------|-----2-5-2-0---2-|--------------3-|
E|-3----------3-2-|-0--------------|--3----------3---|----------------|


[Chorus]

G|---------------|-------------|-------------|-------------|
D|---------------|-------------|-------------|-------------|
A|-5-5----5-5----|-3-3----3-3--|--2--0-------|--2--0-------|
E|------5------5-|------3------|--------3-0--|--------3-0--|


G|----------------|---------------|---------4-4-----|---------4-4-----|
D|----------------|---------------|-----5-7-----7-5-|-----5-7-----7-5-|
A|--5-5----5-5----|-3-3--4-5-5--5-|-7-7-------------|-7-7-------------|
E|-------5------5-|---------------|-----------------|-----------------|


[Interlude]

G|----------------|----------------|-----------------|----------------|
D|----------------|----------------|-----------------|----------------|
A|----2-5-2-0-----|----------------|-----2-5-2-0-----|----------------|
E|-3----------3-2-|-0--------------|--3----------3-2-|-0--------------|


[Verse 2]

G|----------------|----------------|-----------------|----------------|
D|----------------|----------------|-----------------|----------------|
A|----2-5-2-0-----|----------------|-----2-5-2-0-----|----------------|
E|-3----------3-2-|-0--------------|--3----------3-2-|-0--------------|


G|----------------|----------------|-----------------|----------------|
D|----------------|----------------|-----------------|-2--------------|
A|----2-5-2-0-----|----------------|-----2-5-2-0---2-|--------------3-|
E|-3----------3-2-|-0--------------|--3----------3---|----------------|


[Chorus]

G|---------------|-------------|-------------|-------------|
D|---------------|-------------|-------------|-------------|
A|-5-5----5-5----|-3-3----3-3--|--2--0-------|--2--0-------|
E|------5------5-|------3------|--------3-0--|--------3-0--|


G|----------------|---------------|---------4-4-----|---------4-4-----|
D|----------------|---------------|-----5-7-----7-5-|-----5-7-----7-5-|
A|--5-5----5-5----|-3-3--4-5-5--5-|-7-7-------------|-7-7-------------|
E|-------5------5-|---------------|-----------------|-----------------|


[Instrumental]

G|-----------------|-----------------|-----------------|-----------------|
D|-----------------|-----------------|-----------------|-----------------|
A|-----2-5-2-0-----|-----------------|-----2-5-2-0-----|-----------------|
E|-3-3---------3-2-|-0-0-0-0-0-0-0-2-|-3-3---------3-2-|-0-0-0-0-0-0-0-2-|


G|-----------------|-----------------|-----------------|-----------------|
D|-----------------|-----------------|-----------------|-----------------|
A|-----2-5-2-0-----|-----------------|-----2-5-2-0-----|-----------------|
E|-3-3---------3-2-|-0-0-0-0-0-0-0-2-|-3-3---------3-2-|-0-0-0-0-0-0-0-0-|


[Pre-Chorus]

G|----------------|----------------|-----------------|----------------|
D|----------------|----------------|-----------------|----------------|
A|----2-5-2-0-----|----------------|-----2-5-2-0-----|----------------|
E|-3----------3-2-|-0--------------|--3----------3-2-|-0--------------|


[Chorus]

G|----------------|-------------|-------------|-------------|
D|----------------|-------------|-------------|-------------|
A|--5-5----5-5----|-3-3----3-3--|--2--0-------|--2--0-------|
E|-------5------5-|------3------|--------3-0--|--------3-0--|


G|----------------|--------------|---------4-4-----|---------4-4-----|
D|----------------|--------------|-----5-7-----7-5-|-----5-7-----7-5-|
A|--5-5----5-5----|-3-3---5-5--5-|-7-7-------------|-7-7-------------|
E|-------5------5-|--------------|-----------------|-----------------|


[Outro]

G|----------------|-----------------|----------------|-----------------|
D|----------------|-----------------|----------------|-----------------|
A|----2-5-2-0-----|-----------------|----2-5-2-0-----|-----------------|
E|-3----------3-2-|-0-0-0-0-0-0-0-2-|-3----------3-2-|-0-0-0-0-0-0-0-2-|


G|----------------|-----------------|----------------|-----------------|
D|----------------|-----------------|----------------|-2-2-2-2-2-2-2---|
A|----2-5-2-0-----|-----------------|----2-5-2-0---2-|---------------3-|
E|-3----------3-2-|-0-0-0-0-0-0-0-2-|-3----------3---|-----------------|


G|---------------|-------------|-------------|-------------|
D|---------------|-------------|-------------|-------------|
A|-5-5----5-5----|-3-3----3-3--|--2--0-------|--2--0-------|
E|------5------5-|------3------|--------3-0--|--------3-0--|



********************************

in regular sequence!

********************************
Suggest correction
Give kudos to tab author, rate the tab!
1 2 3 4 5
comments
print report bad tab
guest
You may want to rate the tab now too:
select rating
Wanna post a correction for this tab? Suggest correction