Oops, an error
Loading. Please wait.

Property Is Condemned Bass Tab

10 views 3 this week
no commentswrite comment
1 2 3 4 5
3 more votes to show rating
add to favorites
launch autoscroll
font size
0
reset
guitar tuner
Autoscroll
slow
fast
+/-
esc
set tempo
stop
Help us to improve Ultimate-Guitar.com Take our survey!
×
Author
Difficulty
novice
Bass Start - 00:16


[Intro]
G|-------------|-------------|-------------|-------------|-------------|-------------|
D|-------------|-------------|-------------|-------------|-------------|-------------|
A|-------------|-------------|-------------|-------------|-------------|-------------|
E|-7---5-7-7--5|-7---5-7-7--5|-7---5-7-7--5|-7---5-7-7--5|-7---5-7-7--5|-7---5-7-7--0|

[Verse 1]
G|-------------|-------------|-------------|-------------| (x2)
D|-------------|-------------|-------------|-------------|
A|-------------|-------------|-------------|-------------|
E|-5-7--5-7--0-|-5-7--5-7--0-|-5-7--5-7--0-|-5-7--5-7--0-|

G|-------------|-------------|
D|-------------|-------------|
A|-------------|-------------|
E|-5-7--5-7--0-|-5-7--5-7--0-|

[Chorus]
G|------------|------------|------------|------------|
D|------------|------------|------------|------------|
A|-2----------|-2----------|-2----------|-2----------|
E|----0--2--5-|----0--2--5-|----0--2--5-|----0--2--5-|

G|------------|------------|------------|-------------|
D|------------|------------|------------|-------------|
A|-2----------|-2----------|-2----------|-2-----0-2--0|
E|----0--2--5-|----0--2--5-|----0--2--5-|----0--------|

[Interlude]
G|-------------|-------------|-------------|-------------|
D|-------------|-------------|-------------|-------------|
A|-2-----0-2--0|-2-----0-2--0|-2-----0-2--0|-2-----0-2--0|
E|----0--------|----0--------|----0--------|----0--------|

[Verse 2]
G|-------------|-------------|-------------|-------------| (x2)
D|-------------|-------------|-------------|-------------|
A|-2-----0-2--0|-2-----0-2--0|-2-----0-2--0|-2-----0-2--0|
E|----0--------|----0--------|----0--------|----0--------|

G|-------------|-------------|
D|-------------|-------------|
A|-2-----0-2--0|-2-----0-2--0|
E|----0--------|----0--------|

[Chorus]
G|------------|------------|------------|------------|
D|------------|------------|------------|------------|
A|-2----------|-2----------|-2----------|-2----------|
E|----0--2--5-|----0--2--5-|----0--2--5-|----0--2--5-|

G|------------|------------|------------|-------------|
D|------------|------------|------------|-------------|
A|-2----------|-2----------|-2----------|-2-----0-2--0|
E|----0--2--5-|----0--2--5-|----0--2--5-|----0--------|

[Interlude]
G|-------------|-------------|-------------|-------------| (x2)
D|-------------|-------------|-------------|-------------|
A|-2-----0-2--0|-2-----0-2--0|-2-----0-2--0|-2-----0-2--0|
E|----0--------|----0--------|----0--------|----0--------|

[Verse 3]
G|-------------|-------------|-------------|-------------| (x2)
D|-------------|-------------|-------------|-------------|
A|-2-----0-2--0|-2-----0-2--0|-2-----0-2--0|-2-----0-2--0|
E|----0--------|----0--------|----0--------|----0--------|

G|-------------|-------------|
D|-------------|-------------|
A|-2-----0-2--0|-2-----0-2--0|
E|----0--------|----0--------|

[Verse 4]
G|-------------|-------------|-------------|-------------| (x2)
D|-------------|-------------|-------------|-------------|
A|-2-----0-2--0|-2-----0-2--0|-2-----0-2--0|-2-----0-2--0|
E|----0--------|----0--------|----0--------|----0--------|

G|-------------|-------------|
D|-------------|-------------|
A|-2-----0-2--0|-2-----0-2--0|
E|----0--------|----0--------|

[Chorus]
G|------------|------------|------------|------------| (x4)
D|------------|------------|------------|------------|
A|-2----------|-2----------|-2----------|-2----------|
E|----0--2--5-|----0--2--5-|----0--2--5-|----0--2--5-|

G|--------------|--------------|--------------|--------------| (x3)
D|--------------|--------------|--------------|--------------|
A|--------------|--------------|--------------|--------------|
E|-2/7-7-7-7--0-|-2/7-7-7-7--0-|-2/7-7-7-7--0-|-2/7-7-7-7--0-|

G|--------------|----------------|----------------|----------------|----------------|
D|--------------|----------------|----------------|----------------|----------------|
A|--------------|----------------|----------------|----------------|----------------|
E|-2/7-7-7-7--7-|-7--------------|----------------|----------------|----------------|

[Outro]
G|--------------|--------------|--------------|--------------| 
D|--------------|--------------|--------------|--------------|
A|--------------|--------------|--------------|--------------|
E|-2/7-7-7-7--0-|-2/7-7-7-7--0-|-2/7-7-7-7--0-|-2/7-7-7-7--0-|

G|--------------|--------------|--------------|--------------|----------------| 
D|--------------|--------------|--------------|--------------|----------------|
A|--------------|--------------|--------------|--------------|----------------|
E|-2/7-7-7-7--0-|-2/7-7-7-7--0-|-2/7-7-7-7--0-|-2/7-7-7-7--7-|-7--------------|



**************************

| / slide up

**************************
Suggest correction
Give kudos to tab author, rate the tab!
1 2 3 4 5
comments
print report bad tab
guest
You may want to rate the tab now too:
select rating
Wanna post a correction for this tab? Suggest correction