Oops, an error
Loading. Please wait.

Red Pony Bass Tab

13 views 1 this week
no commentswrite comment
1 2 3 4 5
3 more votes to show rating
add to favorites
launch autoscroll
font size
0
reset
guitar tuner
Autoscroll
slow
fast
+/-
esc
set tempo
stop
Help us to improve Ultimate-Guitar.com Take our survey!
×
Author
Difficulty
novice
[Intro]
G|----------|----------|-----------|----------|-----------|----------|------------|------------|
D|----5-----|----------|-----5-----|----------|-----5-----|----------|---6-9---6-9|---6-9---6-9|
A|7-8---8--7|-5-7-8-7--|-7-8---8--7|-5-7-8-7--|-7-8---8--7|-5-7-8-7--|-7-----7----|-7-----7----|
E|----------|----------|-----------|----------|-----------|----------|------------|------------|

[Verse]
G|-----------|----------|------------|------------|
D|-/7---7-5--|-7---7-5--|-5-5-5-5-5--|-----------2|
A|----------7|---------7|-----------5|-3-3-3-3-3--|
E|-----------|----------|------------|------------|

G|------------|------------|-----------|----------|------------|------------|
D|-3-3-3-3-3-3|------------|-----5-----|----------|---6-9---6-9|---6-9---6-9|
A|------------|-5-5-5-5-5-8|-7-8---8--7|-5-7-8-7--|-7-----7----|-7-----7----|
E|------------|------------|-----------|----------|------------|------------|

G|-----------|----------|------------|------------|
D|-/7---7-5--|-7---7-5--|-5----------|-2-3-2-0----|
A|----------7|---------7|-----0-2-3-5|---------3-0|
E|-----------|----------|---3--------|------------|

G|------------|------------|-----------|----------|------------|------------|
D|-3-3-3-3---0|-2-3-2-0---3|-2-3-5-3--2|-0-2-3-2--|---6-9---6-9|---6-9---6-9|
A|---------3--|---------3--|-----------|----------|-7-----7----|-7-----7----|
E|------------|------------|-----------|----------|------------|------------|

G|-----------|----------|------------|------------|
D|-/7---7-5--|-7---7-5--|-5-5-5-5-5--|-----------2|
A|----------7|---------7|-----------5|-3-3-3-3-3--|
E|-----------|----------|------------|------------|

G|------------|------------|-----------|----------|------------|------------|
D|-3-3-3-3-3-3|------------|-----5-----|----------|---6-9---6-9|---6-9---6-9|
A|------------|-5-5-5-5-5-8|-7-8---8--7|-5-7-8-7--|-7-----7----|-7-----7----|
E|------------|------------|-----------|----------|------------|------------|

G|------------|------------|------------|------------|
D|-/7--7-7-5--|-7-7-7-7-5--|-5----------|-2-3-2-0----|
A|-----------7|-----------7|-----0-2-3-5|---------3-0|
E|------------|------------|---3--------|------------|

G|------------|------------|-----------|----------|-----------|----------|-----------|----------|
D|-3-3-3-3---0|-2-3-2-0----|-2-3-5-3--2|-0-2-3-2--|-2-3-5-3--2|-0-2-3-2--|-2-3-5-3--2|-0-2-3-2--|
A|---------3--|---------3-0|-----------|----------|-----------|----------|-----------|----------|
E|------------|------------|-----------|----------|-----------|----------|-----------|----------|

G|------------|------------|
D|---6-9---6-9|---6-9---6-9|
A|-7-----7----|-7-----7----|
E|------------|------------|

[Instrumental] 
G|-----------|----------|------------|------------|
D|-/7---7-5--|-7---7-5--|-5----------|-2-3-2-0----|
A|----------7|---------7|-----0-2-3-5|---------3-0|
E|-----------|----------|---3--------|------------|

G|---------|------------|-----------|----------|------------|------------|
D|-3------0|-2-3-2-0----|-2-3-5-3--2|-0-2-3-2--|---6-9---6-9|---6-9---6-9|
A|------3--|---------3-0|-----------|----------|-7-----7----|-7-----7----|
E|---------|------------|-----------|----------|------------|------------|

G|-----------|----------|------------|------------|
D|-/7---7-5--|-7---7-5--|-5----------|-2-3-2-0----|
A|----------7|---------7|-----0-2-3-5|---------3-0|
E|-----------|----------|---3--------|------------|

G|------------|------------|-----------|----------|------------|------------|
D|-3-3-3-3---0|-2-3-2-0---3|-2-3-5-3--2|-0-2-3-2--|---6-9---6-9|---6-9---6-9|
A|---------3--|---------3--|-----------|----------|-7-----7----|-7-----7----|
E|------------|------------|-----------|----------|------------|------------|

[Verse]
G|-----------|----------|------------|------------|
D|-/7---7-5--|-7---7-5--|-5-5-5-5-5--|-----------2|
A|----------7|---------7|-----------5|-3-3-3-3-3--|
E|-----------|----------|------------|------------|

G|------------|------------|-----------|----------|------------|------------|
D|-3-3-3-3-3-3|------------|-----5-----|----------|---6-9---6-9|---6-9---6-9|
A|------------|-5-5-5-5-5-8|-7-8---8--7|-5-7-8-7--|-7-----7----|-7-----7----|
E|------------|------------|-----------|----------|------------|------------|

G|-----------|----------|------------|------------|
D|-/7---7-5--|-7---7-5--|-5----------|-2-3-2-0----|
A|----------7|---------7|-----0-2-3-5|---------3-0|
E|-----------|----------|---3--------|------------|

G|------------|------------|-----------|----------|------------|------------|
D|-3-3-3-3---0|-2-3-2-0---3|-2-3-5-3--2|-0-2-3-2--|---6-9---6-9|---6-9---6-9|
A|---------3--|---------3--|-----------|----------|-7-----7----|-7-----7----|
E|------------|------------|-----------|----------|------------|------------|

G|-----------|----------|------------|------------|
D|-/7---7-5--|-7---7-5--|-5-5-5-5-5--|-----------2|
A|----------7|---------7|-----------5|-3-3-3-3-3--|
E|-----------|----------|------------|------------|

G|------------|------------|-----------|----------|------------|------------|
D|-3-3-3-3-3-3|------------|-----5-----|----------|---6-9---6-9|---6-9---6-9|
A|------------|-5-5-5-5-5-8|-7-8---8--7|-5-7-8-7--|-7-----7----|-7-----7----|
E|------------|------------|-----------|----------|------------|------------|

G|-----------|----------|------------|------------|
D|-/7---7-5--|-7---7-5--|-5----------|-2-3-2-0----|
A|----------7|---------7|-----0-2-3-5|---------3-0|
E|-----------|----------|---3--------|------------|

G|------------|------------|-----------|----------|-----------|----------|-----------|------------|
D|-3-3-3-3---0|-2-3-2-0---3|-2-3-5-3--2|-0-2-3-2--|-2-3-5-3--2|-0-2-3-2--|-2-3-5-3--2|-0-2-2-2-2-2|
A|---------3--|---------3--|-----------|----------|-----------|----------|-----------|------------|
E|------------|------------|-----------|----------|-----------|----------|-----------|------------|

G|------------|------------|
D|---6-9---6-9|---6-9---6-9|
A|-7-----7----|-7-----7----|
E|------------|------------|

[Instrumental]
G|-----------|----------|------------|------------|
D|-/7---7-5--|-7---7-5--|-5----------|-2-3-2-0----|
A|----------7|---------7|-----0-2-3-5|---------3-0|
E|-----------|----------|---3--------|------------|

G|------------|-------------|-----------|----------|------------|------------|
D|-3-3-3-3---0|-2-3-2-0-----|-2-3-5-3--2|-0-2-3-2--|---6-9---6-9|---6-9---6-9|
A|---------3--|---------3-0-|-----------|----------|-7-----7----|-7-----7----|
E|------------|-------------|-----------|----------|------------|------------|

[Outro]
G|-----------|----------|------------|------------|
D|-/7---7-5--|-7---7-5--|-5----------|-2-3-2-0----|
A|----------7|---------7|-----0-2-3-5|---------3-0|
E|-----------|----------|---3--------|------------|

G|------------|------------|
D|-3-3-3-3---0|-2-3-2-0---3|
A|---------3--|---------3--|
E|------------|------------|

G|----------|----------|----------|---------| (x3)
D|-2-2-(2-0)|-2-2-(2-0)|-2-2-(2-0)|2-2-(2-0)|
A|----------|----------|----------|---------|
E|----------|----------|----------|---------|

G|---1-4---1-4|---1-4---1-4-|-2--------------|
D|-2-----2----|-2-----2-----|----------------|
A|------------|-------------|----------------|
E|------------|-------------|----------------|



******************************

| / slide up
| ( )  fast

******************************
Suggest correction
Give kudos to tab author, rate the tab!
1 2 3 4 5
comments
print report bad tab
guest
You may want to rate the tab now too:
select rating
Wanna post a correction for this tab? Suggest correction