Oops, an error
Loading. Please wait.

Reverie Bass Tab

13 views 3 this week
no commentswrite comment
1 2 3 4 5
3 more votes to show rating
add to favorites
launch autoscroll
font size
0
reset
guitar tuner
Autoscroll
slow
fast
+/-
esc
set tempo
stop
Help us to improve Ultimate-Guitar.com Take our survey!
×
Author
Difficulty
novice
Bass Start - 00:08


[Intro]
G|-----------------|----------------|----------------|----------------|
D|-7---------------|----------------|-7--------------|----------------|
A|-----------------|----------------|----------------|------------12-\|
E|-----------------|----------------|----------------|---------12-----|

[Main Riff]
G|----------------|----------------|----------------|----------------|
D|-----7-7-4-4----|----------------|-----7-7-4-4----|----------------|
A|-------------7-7|-5-5-4-4--------|-------------7-7|-5-5-4-4--------|
E|-5-5------------|---------7-7-5-7|-5-5------------|---------7-7-5-7|

[Verse 1]
G|----------------|----------------|----------------|----------------| (x3)
D|-----7-7-4-4----|----------------|-----7-7-4-4----|----------------|
A|-------------7-7|-5-5-4-4--------|-------------7-7|-5-5-4-4--------|
E|-5-5------------|---------7-7-5-7|-5-5------------|---------7-7-5-7|

G|----------------|----------------|----------------|----------------| 
D|-----7-7-4-4----|----------------|-----7-7-4-4----|-0-0------------|
A|-------------7-7|-5-5-4-4--------|-------------7-7|-----4-4-2-2-0-2|
E|-5-5------------|---------7-7-5-7|-5-5------------|----------------|

[Chorus]
G|-------------|-------------|----7--------|------------|
D|----3--------|----7--------|-------------|------------|
A|----------8-7|----------3-4|-5----5---5--|-3---3---0--|
E|-1----1------|-5----5------|------------5|-----------3|

G|-------------|-------------|----7--------|-----------|
D|----3--------|----7--------|-------------|-----------|
A|----------8-7|----------3-4|-5----5---5--|-3---------|
E|-1----1------|-5----5------|------------5|--------3-4|

[Interlude]
G|----------------|----------------|----------------|----------------|
D|----------------|----------------|-7--------------|----------------|
A|----------------|----------------|----------------|----------------|
E|-5--------------|-5--------------|----------------|-5--------------|

[Verse 2]
G|------------|------------|------------|------------|
D|------------|------------|------------|------------|
A|------------|------------|------------|------------|
E|-5-5---5-5--|-5-5---5-5--|-5-5---5-5--|-5-5---5-5--|

G|----------------|----------------|----------------|----------------| (x2)
D|-----7-7-4-4----|----------------|-----7-7-4-4----|----------------|
A|-------------7-7|-5-5-4-4--------|-------------7-7|-5-5-4-4--------|
E|-5-5------------|---------7-7-5-7|-5-5------------|---------7-7-5-7|

G|----------------|----------------|----------------|----------------| 
D|-----7-7-4-4----|----------------|-----7-7-4-4----|-0-0------------|
A|-------------7-7|-5-5-4-4--------|-------------7-7|-----4-4-2-2-0-2|
E|-5-5------------|---------7-7-5-7|-5-5------------|----------------|

[Chorus]
G|-------------|-------------|----7--------|------------|
D|----3--------|----7--------|-------------|------------|
A|----------8-7|----------3-4|-5----5---5--|-3---3---0--|
E|-1----1------|-5----5------|------------5|-----------3|

G|-------------|-------------|----7--------|-----------|
D|----3--------|----7--------|-------------|-----------|
A|----------8-7|----------3-4|-5----5---5--|-3---------|
E|-1----1------|-5----5------|------------5|--------3-4|

[Interlude]
G|----------------|----------------|----------------|----------------| (x2)
D|----------------|----------------|----------------|----------------|
A|--------------4-|-5----7---------|--------------4-|-5----7---------|
E|-5--------------|----------------|-5--------------|----------------|

[Main Riff]
G|----------------|----------------|----------------|----------------| (x2)
D|-----7-7-4-4----|----------------|-----7-7-4-4----|----------------|
A|-------------7-7|-5-5-4-4--------|-------------7-7|-5-5-4-4--------|
E|-5-5------------|---------7-7-5-7|-5-5------------|---------7-7-5-7|

[Outro]
G|----------------|----------------|----------------|----------------| 
D|-----7-7-4-4----|----------------|-----7-7-4-4----|----------------|
A|-------------7-7|-5-5-4-4--------|-------------7-7|-5-5-4-4--------|
E|-5-5------------|---------7-7-5-7|-5-5------------|---------7-7-5-7|

(repeat until the end)
G|----------------|----------------|----------------|----------------| 
D|-----7-7-4-4----|---------4-4-7-7|-----7-7-4-4----|---------4-4-7-7|
A|-------------7-7|-5-5-7-7--------|-------------7-7|-5-5-7-7--------|
E|-5-5------------|----------------|-5-5------------|----------------|



*************************

| \ slide down

*************************
Suggest correction
Give kudos to tab author, rate the tab!
1 2 3 4 5
comments
print report bad tab
guest
You may want to rate the tab now too:
select rating
Wanna post a correction for this tab? Suggest correction